Fátima

Capital Inicial

 Capital Inicial
Tom: D#
		
(intro 2x) Cm Ab Bb

(riff)

(parte 1)

 Cm
E|------------------------------------------|
B|------------------------------------------|
G|-3-3-3-X-3-5-5~-3-3-3-X-3-5-5~------------|
D|------------------------------------------|
A|------------------------------------------|
E|------------------------------------------|


(parte 2)

  Ab            Bb
E|------------------------------------------|
B|------------------------------------------|
G|--3-3-3-X-3-5-5/7~------------------------|
D|------------------------------------------|
A|------------------------------------------|
E|------------------------------------------|


(parte 3)

 Cm
E|------------------------------------------|
B|------------------------------------------|
G|-3-3-3-X-3-5-5~-3-3-3-X-3-5-5~------------|
D|------------------------------------------|
A|------------------------------------------|
E|------------------------------------------|


(parte 4)

  Ab           Bb
E|------------------------------------------|
B|------------3-----------------------------|
G|--3-3-3-X-3---5-3-3h5~--------------------|
D|------------------------------------------|
A|------------------------------------------|
E|------------------------------------------|


         Cm
Vocês esperam uma intervenção divina
                     Ab                        Bb
Mas não sabem que o tempo agora está contra vocês

          Cm
Vocês se perdem no meio de tanto medo
                     Ab                          Bb
De não conseguir dinheiro pra comprar sem se vender

        Cm
E vocês armam seus esquemas ilusórios
                 Ab                        Bb
Continuam só fingindo que o mundo ninguém fez

         Cm
Mas acontece que tudo tem começo
                      Ab                       Bb
E se começa, um dia acaba, eu tenho pena de vocês

(passagem 2x) Cm   Bb5   Cm   Eb5

(variação do riff - após a passagem)

(riff intro 2x) Cm   Ab   Bb

(parte 1)

 Cm
E|------------------------------------------|
B|------------------------------------------|
G|-3-3-3-X-3-5-5~-3-3-3-X-3-5-5~------------|
D|------------------------------------------|
A|------------------------------------------|
E|------------------------------------------|


(parte 2)

  Ab             Bb
E|------------------------------------------|
B|--------------3---------------------------|
G|--3-3-3-X-3-5---5-3-3h5p3-----------------|
D|--------------------------5~--------------|
A|------------------------------------------|
E|------------------------------------------|


(parte 3)

  Ab               Bb
E|------------------------------------------|
B|------------------------------------------|
G|--3-3-3-X-3-5-3h5~------------------------|
D|------------------------------------------|
A|------------------------------------------|
E|------------------------------------------|


        Cm
E as ameaças de ataque nuclear
           Ab                         Bb
Bombas de nêutrons não foi Deus quem fez

            Cm
Alguém, alguém um dia vai se vingar
           Ab                     Bb
Vocês são vermes, pensam que são reis

           Cm
Não quero ser como vocês
Ab                 Bb
   Eu não preciso mais

Cm
   Eu já sei o que tenho que saber
Ab           Bb
   E agora, tanto faz

(intro 1x) Cm   Ab   Bb
(solo 2x)  Cm   Eb   Bb
(solo 2x)  Cm   Ab   Bb

(solo)

(1ª parte)


Cm Eb Bb
E|------------------------------------------
B|------------------------------------------
G|------------------------------------------
D|-5~--3-5~--3-5~--5-3----------------------
A|------------------------------------------
E|------------------------------------------


(2ª parte)


Cm Eb Bb
E|------------------------------------------
B|------------------------------------------
G|------------------------------3-----------
D|-5--3-5--3-3-3-3h5---5-3--3/5-------------
A|------------------------------------------
E|------------------------------------------


(3ª parte)


  Cm               Ab           Bb
E|------------------------------------------
B|-4-3-4-3-4p3------------------------------
G|-------------h5--3-3h5-3h5p3---3----------
D|-----------------------------5------------
A|------------------------------------------
E|------------------------------------------


(4ª parte)


 Cm                Ab     Bb
E|------------------------------------------
B|------------------------------------------
G|-------------3h5\-------------------------
D|-3-3-3-3-3h5------3/5-4-3\-0h1p0----------
A|------------------------------------------
E|------------------------------------------


(terceira parte)

        Cm
Três crianças sem dinheiro e sem moral
                    Ab               Bb
Não ouviram a voz suave que era uma lágrima

           Cm
E se esqueceram de avisar pra todo mundo
                   Ab               Bb
Ela talvez tivesse nome, e era Fátima

        Cm
E de repente o vinho virou água
       Ab              Bb
E a ferida não cicatrizou

           Cm
E o limpo se sujou e no terceiro dia
      Ab     Bb
 ninguém ressuscitou

(intro 5x)  Cm Ab Bb

(riff final)

(parte 1)


Cm
E|------------------------------------------|
B|------------------------------------------|
G|-3-3-3-X-3-5-5~-3-3-3-X-3-5-5~------------|
D|------------------------------------------|
A|------------------------------------------|
E|------------------------------------------|


(parte 2)


  Ab             Bb
E|------------------------------------------|
B|------------------------------------------|
G|--3-3-3-X-3-5-5~--------------------------|
D|------------------------------------------|
A|------------------------------------------|
E|------------------------------------------|


(parte 3)


Cm
E|------------------------------------------|
B|------------------------------------------|
G|-3-3-3-X-3-5-5~-3-3-3-X-3-5-5~------------|
D|------------------------------------------|
A|------------------------------------------|
E|------------------------------------------|


(parte 4)


  Ab               Bb   Cm
E|----------------------3-------------------|
B|----------------------4-------------------|
G|--3-3-3-X-3-5-3h5~----5-------------------|
D|----------------------5-------------------|
A|----------------------3-------------------|
E|------------------------------------------|

Comentários 36

  • le le: Postado em 05/05/2014 12:32

    Iniciantes essa musica pode ser tocada com o capo na 1ª casa na trocando Cm por Bm, Ab por G, Bb por A, e Eb por D fica mais fácil.

  • thiago thiago: Postado em 05/02/2014 18:14

    A versão do aborto elétrico tá mais foda!

  • edson.dutra.94 edson.dutra.94: Postado em 18/12/2013 08:55

    por que nao aparece os acordes??

    • adorador1983 adorador1983: Postado em 15/05/2014 21:40

      Pode ser seu navegador amigo ...tem mudar o navegador (explore ou outros )

  • edson.dutra.94 edson.dutra.94: Postado em 17/12/2013 08:28

    por que nao aparece os acordes mais??

  • junior423 junior423: Postado em 19/10/2013 23:17

    po faz uma video aula pra guitarra com o riff

  • xicoxico xicoxico: Postado em 05/10/2013 22:11

    gostei muito da sua aula vc encina legau
    parabens

  • ismaelbeatles ismaelbeatles: Postado em 06/08/2013 15:05

    Muito Foda

  • pietralonga pietralonga: Postado em 11/03/2013 14:26

    essa musica é de legiao urbana! do antigo aborto eletrico

    • Carla Carla: Postado em 11/05/2013 20:15

      legião urbana é legião urbana e aborto elétrico é aborto elétrico!E essa música é do Aborto Elétrico.Assista Somos Tão Jovens...vc vai enten

Exibindo 10 de 36 comentários Mostrar mais ver todos »
Composição: Renato Russo / Suba / T. Gamwells
Esse não é o compositor? Avise-nos.
Exibir acordes »
publicidade
fechar