Respirar Você

Capital Inicial

 Capital Inicial
Tom: C
		
(intro 2x) Am F C G

(riff 1)

    Am              F            C              Em
E|----------0------------------------------------0----|
B|------------1--------1-------------1-------------0--|
G|------------------------2------------0--------------|
D|----------------------------------------------------|
A|--0-0------------------------3-3--------------------|
E|----------------1-1-----------------------0-0-------|



    Am              F            C              G
E|----------0--------------------------------------0--|
B|------------1--------1-------------1----------------|
G|------------------------2------------0--------------|
D|----------------------------------------------------|
A|--0-0------------------------3-3--------------------|
E|----------------1-1-------------------------3-3-----|




Am           F           C        Em
Lento como o tempo q não quer passar
Am           F          C       G
Dorme pelos cantos e me faz pensar
Am           F            C       Em
Certo comu um corte q não quer doer
Am         F            C      G
Olho pro espelho sem me conhecer

(refrão)
C       F     C       F
Vou fingir q nunca te vi
C      F      C        F
Vou viver sem ter onde ir
C             G           Am
Até cansar de respirar você
C             G           F
Até cansar de respirar você

Am              F             C          Em
Hà uma coisa errada quando um par são três
     Am     F          C       G
uma vida inteira na primeira vez
   Am         F             C        Em
Palavra por palavra o que não quer dizer
Am           F           C      G
Arde tanto a ponto de enlouquecer

(refrão)

(A5 F5) (3x) G
(A5 F5) (3x) G

Am           F           C        Em
Lento como o tempo q não quer passar
Am           F          C       G
Dorme pelos cantos e me faz pensar
Am           F            C       Em
Certo comu um corte q não quer doer
Am         F            C      G
Olho pro espelho sem me conhecer

C       F     C       F
Vou fingir q nunca te vi
C      F      C        F
Vou viver sem ter onde ir
C       F     C       F
Vou fingir q nunca te vi
C      F      C        F
Vou viver sem ter onde ir
C             G           Am
Até cansar de respirar você
C             G           F
Até cansar de respirar você

(solo 2) C F

Amanhã vai ser outro dia
170.210 exibições

Comentários 2

  • leonardo leonardo: Postado em 02/01/2014 11:32

    cade solo?

    • Matheus Matheus: Postado em 08/07/2014 15:49

      ta em C vey improvisa fiao

Composição: Dinho Ouro Preto / J. Origliasso / Joakim Montelius / Maurício Manieri / Neil Halstead / Peter Gill
Esse não é o compositor? Avise-nos.
Contribuição: ORELHA Correções: Felipe , Slash_Velvet_Revolver e mais 4 »
Exibir acordes »
publicidade
fechar