Black Magic Woman

Carlos Santana

 Carlos Santana
  intro 
G|--------------------------------------------------------------------------------------------
D|------7\3----------7\3----------7\3----------7\3----------7\3----------55-------55-5/7------
A|05--------5-5-05-5-----5-5-05-5-----5-5-05-5-----5-5-05-5-----5-5-5---5----5---5------55--55
E|-------------------------------------------------------------------5--------5------------5--
  
------------------------------------|
-------------55-----55-5/7-----7----|
--55--55-5--5---5--5------55----5\--|
-5---5----5------5------------------|

  verse 
G|----5575----5575--------------------5575----5575--------------------5575------------55757
D|---7-------7--------5575----5575---7-------7----5---3353----3353---7--------5575---7-----
A|5-------5----------7-------7----5-------5----------5-------5--------------7----5---------
E|----------------5-------5-------------------------------3-------5--------5---------------

  only use this ending on the 1st verse (use a long rest for the others)
---55-----| 
--7--53---| 
-------5--| 
----------| 

I don't have the last half of the song here.

A tab by Achilles (*)

Comentários 0

publicidade
fechar