Cássia Eller

No recreio

187.963 exibições
Tom: E
Intro:

   E5
E|------------------------------------------|
B|------------------------------------------|
G|-----9--------7---------------------------|
D|---9---9--------9---9---------------------|
A|-7--------7-7-----7-----------------------|
E|------------------------------------------|


E5 (8x)


Primeira Parte:

1-
   E5
E|------0-----------------------------------|
B|------0-----------------------------------|
G|------9--------7--------------------------|
D|------9--9-------9---9--------------------|
A|------7----7-7-----7----------------------|
E|-0-0--------------------------------------|

2-
   E5
E|------0-----------------------------------|
B|------0-----------------------------------|
G|------9-----------------------------------|
D|------9--9--------------------------------|
A|------7--------5---5/7--------------------|
E|-0-0-------5h7---7------------------------|

3-
   B9
E|-2--2--2-2--x-----------------------------|
B|-2--2--2-2--x-----------------------------|
G|-4--4--4-4--x--------x--------------------|
D|-4--4--4-4--x-----4--x--4----4------------|
A|-2--0--2-2--x-----0--x--0----0------------|
E|--------------0h2----------2--------------|

4- 
   B9
E|-2--2--2-2--x--2-2-2--2-2-2---------------|
B|-2--2--2-2--x--2-2-2--2-2-2---------------|
G|-4--4--4-4--x--4-4-4--4-4-4---------------|
D|-4--4--4-4--x--4-4-4--4-4-4---------------|
A|-2--0--2-2--x--2-2-2--2-2-2---------------|
E|------------------------------------------|


5-
   B9/A
E|-2--2--2-2--x--2-2-2--2-2-2---------------|
B|-2--2--2-2--x--2-2-2--2-2-2---------------|
G|-4--4--4-4--x--4-4-4--4-4-4---------------|
D|-4--4--4-4--x--4-4-4--4-4-4---------------|
A|-0--0--0-0--x--0-0-0--0-0-0---------------|
E|------------------------------------------|


E5
 Quer saber quando te olhei na piscina

Se apoiando com as mãos na borda

Fervendo a água que não era tão fria

E um azulejo se partiu por que a porta
                 B9
Do nosso amor estava se abrindo

E os pés que irão por esse caminho
                   E5
Vão terminar no altar

Eu só queria, me casar
                      B9
Com alguem igual a você
B9/A                           B9
  E alguém igual não há de ter
 

Segunda Parte:

1-
   B9
E|-2--2--2-2--x-----------------------------|
B|-2--2--2-2--x-----------------------------|
G|-4--4--4-4--x--------x--------------------|
D|-4--4--4-4--x-----4--x--4----4------------|
A|-2--0--2-2--x-----0--x--0----0------------|
E|--------------0h2----------2--------------|

2-
   B9/A
E|-2--2--2-2--x--2-2-2--2-2-2---------------|
B|-2--2--2-2--x--2-2-2--2-2-2---------------|
G|-4--4--4-4--x--4-4-4--4-4-4---------------|
D|-4--4--4-4--x--4-4-4--4-4-4---------------|
A|-0--0--0-0--x--0-0-0--0-0-0---------------|
E|------------------------------------------|

3-
   B9/G#
E|-2--2--2-2--x--2-2-2--2-2-2---------------|
B|-2--2--2-2--x--2-2-2--2-2-2---------------|
G|-4--4--4-4--x--4-4-4--4-4-4---------------|
D|-4--4--4-4--x--4-4-4--4-4-4---------------|
A|-x--x--x-x--x--x-x-x--x-x-x---------------|
E|-4--4--4-4-----4-4-4--4-4-4---------------|

4-
   B9
E|-2--2--2-2--x--2-2-2--2-2-2---------------|
B|-2--2--2-2--x--2-2-2--2-2-2---------------|
G|-4--4--4-4--x--4-4-4--4-4-4---------------|
D|-4--4--4-4--x--4-4-4--4-4-4---------------|
A|-2--0--2-2--x--2-2-2--2-2-2---------------|
E|------------------------------------------|                     

                         E5
Então, quero mudar de lugar
 
Eu quero estar no lugar 
                    B9
Da sala pra te receber
             B9/A
Na cor do esmalte 
                   B9/G#
Que você vai escolher
B9                     E  E5+
  Só para as unhas pintar
                         E6
Quando é que você vai sacar
       E7
Que o vão que fazem suas mão
               B9
É só porque você não está comigo


Terceira Parte:

1-
   B9
E|-2--2--2-2--x-----------------------------|
B|-2--2--2-2--x-----------------------------|
G|-4--4--4-4--x--------x--------------------|
D|-4--4--4-4--x-----4--x--4----4------------|
A|-2--0--2-2--x-----0--x--0----0------------|
E|--------------0h2----------2--------------|

2- 
   B9
E|-2--2--2-2--x-----------------------------|
B|-2--2--2-2--x-----------------------------|
G|-4--4--4-4--x-----------------------------|
D|-4--4--4-4--x-----------------------------|
A|-2--0--2-2--x-----------------------------|
E|------------------------------------------|

C/E          Em7       B9
    Só é possível te amar


Repete Intro:

 E5
      
Repete a Primeira Parte:

E5
  Seus pés se espalham

Em fivela e sandália

E o chão se abre por dois sorrisos
 
Virão guiando o seu corpo que é praia

De um escândalo, charme macio
                      B9
Que cor terá se derreter

Que som os lábios vão morder
                    E5
Vem me ensinar a falar
 
Vem me ensinar ter você
                     B9
Na minha boca agora mora o teu nome
     B9/A                           B9
É a vista que os meus olhos querem ter


Repete a Segunda Parte:

                   E5
Sem precisar procurar  

Nem descansar e adormecer

Não quero acreditar
                      B9
Que vou gastar desse modo a vida
B9/A
  Olhar pro sol 
          B9/G#
Só ver janela e cortina
B9                       E  E5+
  No meu coração fiz um lar
                       E6
O meu coração é o teu lar
       E7
E de que me adianta tanta mobília
      B9
Se você não esta comigo


Parte Final:

C/E          Em7       B9
    Só é possível te amar
C/E          Em7     B9
    Ouve os sinos, amor
C/E          Em7       B9
    Só é possível te amar
C/E              Em7        B9  B9/A
    Escorre aos litros, o amor

1-
   B9           B9/A
E|-2--2--2-2--x-----------------------------|
B|-2--2--2-2--x-----------------------------|
G|-4--4--4-4--x-4-x-4--x--4-----------------|
D|-4--4--4-4--x-4-x-4--x--4-----------------|
A|-2--0--2-2--x-0-x-0--x--0-----------------|
E|------------------------------------------|

2-
   B9
E|--------------------2-2--2-2-2-2----------|
B|--------------------2-2--2-2-2-2----------|
G|-4---4--4---4--4-4--4-4--4-4-4-4----------|
D|-4---4--4---4--4-4--4-4--4-4-4-4----------|
A|-0h2-2--0h2-2--0-2--2-2--2-2-2-2----------|
E|------------------------------------------|

3-
   B9
E|------------------------------------------|
B|------------------------------------------|
G|-4---4--4---4--4-4------------------------|
D|-4---4--4---4--4-4------------------------|
A|-0h2-2--0h2-2--0-2------------------------|
E|------------------------------------------|
    Composição: Nando ReisColaboração e revisão:
    • gustavofofao
    • raulzitoluar
    • Rafah
    • wes

    Comentários 5

    140 .
    • Bradoq Bradoq: Em 29/08/2015 - 11:45

      Muito bom...aguardando a simplificada! Muito obrigado pelo belo trabalho de vocês...vcs são fodas!

    • aly_sousa aly_sousa: Em 28/08/2015 - 11:14

      Adoro esta música... Achei a versão excelente, mas mto elaborada pra mim... :/ Manda uma versão simplificada ai?? Por favor!! rsrs

    • aly_sousa aly_sousa: Em 28/08/2015 - 11:04

      Adorei a versão... mas muito elaborada pra mim ainda... :/ manda uma versão simplificada??? rsrs

    • Alisson Alisson: Em 15/01/2015 13:29

      Show !!

    • Socrates Socrates: Em 26/12/2014 23:22

      porra, esse clipe é da hora!!!!

    140 cancelar

    conseguiu tocar?

    • Ricardo
    • felipewill.delfino
    • announcer
    • Vitória
    • Jessica
    • ,John
    • Hellen

    covers

    Grave um vídeo tocando No recreio e mande pra gente!

    Ex.: http://www.youtube.com/watch?v=0IvSvIwGdwk
    ver covers de outras músicas »
    0:00 / 0:00

    Capítulos

      1 versão de gaita exibições contribuição e correção
      play/pausefechar subir/descer velocidade
      6ª corda E5ª corda A4ª corda D3ª corda G2ª corda B1ª corda E
        acordes
        versão revisada gustavofofao instrutor de violão
        publicidad
        fechar
        ok