Vá Morar com o Diabo

Cássia Eller

 Cássia Eller
Tom: F
		

E|------------6-10-------------||----------10-----10--------------------------|
B|-----7-8-10------8h9p8--6----||-------8------10-----8-7---------------------|
G|-7-9-----------------------7-||--7-9--------------------9-7-----------------|
D|-----------------------------||-----------------------------10-8-8~~~7------|
A|-----------------------------||----------------------------------------10-8-|
E|-----------------------------||---------------------------------------------|



E|-------------------------10------------||-------10----10-9-9-10-10-12--12b(14)-10-|
B|--------------------8-10----8h9p9--6---||-----8----10-----------------------------|
G|-------------7-9-10------------------7-||-7-9-------------------------------------|
D|------7-8-10---------------------------||-----------------------------------------|
A|-8-10----------------------------------||-----------------------------------------|
E|---------------------------------------||-----------------------------------------|



Dm7      A7                          Dm7
Ai meu Deus ai meu Deus o que é que há  (2x)

              Em7(b5)       A7   Dm7
A nêga lá em casa não quer trabalhar
               Em7(b5)        A7    Dm7
Se a panela tá suja ela não quer lavar
                  Em7(b5)       A7     Dm7
Quer comer engordurado não quer cozinhar ...
                Em7(b5)        A7     Dm7
Se a roupa tá lavada, não quer engomar
                  Em7(b5)         A7  Dm7
E se o lixo tá no canto, não quer apanhar
                    Em7(b5)       A7     Dm7
E pra varrer o barracão, eu tenho que pagar
                    Em7(b5)       A7     Dm7
Se ela deita de um lado, não quer se virar
                   Em7(b5)       A7     Dm7
A esteira que ela dorme, não quer enrolar
                          A7    Dm7  D7
Quer agora um Cadilac para passear

   (2x)
   Gm7    Gm6           Dm7
   Ela quer me ver bem mal
                    A7          Dm7   D7
   Vá morar com o diabo que é imortal
   Gm7    Gm6           Dm7
   Ela quer me ver bem mal
                        A7             Dm7  D7
   Vá morar com o sete pele que é imortal
151.770 exibições

Comentários 1

Composição: John Volinkaty / Michael Lawrence Ross
Esse não é o compositor? Avise-nos.
Contribuição: junior Correções: rodrigues »
Consegui tocarAinda não conseguiram tocar essa música. Seja o primeiro!
    Não consegui tocar
    Exibir acordes »
    publicidade
    fechar