Vencer Ou Vencer

Cassiane

 Cassiane
Tom: E
		

E|--------------|--------------|------------9--11-14-|--------------14-14-12-|
B|--------------|--------------|---------12----------|-12-10-10-9-9----------|
G|--------------|--------------|------11-------8--11-|--------------11-11-9--|
D|--------------|--------------|---------9--11-------|-----------------------|
A|--------------|--------------|------9--------------|-----------------------|
E|--------------|--------------|---------------------|-----------------------|



E|-14-12---------------9--|-12------9----|--------------|--------------|
B|-------10------10-12----|-12------11---|--------------|--------------|
G|-11-9-------------------|-9------------|--------------|--------------|
D|------------------9--11-|-9-------11---|--------------|--------------|
A|-------12------12-------|-11------9----|--------------|--------------|
E|------------------------|--------------|--------------|--------------|



E|--------------|--------------|--------------|--------------|--------------|
B|--------------|--------------|--------------|--------------|--------------|
G|--------------|--------------|--------------|--------------|--------------|
D|--------------|--------------|--------------|--------------|--------------|
A|--------------|--------------|--------------|--------------|--------------|
E|--------------|--------------|--------------|--------------|--------------|



E|-------------14-12-|-11-----------|---------11--14-|-------------11-|
B|-------------------|---------12---|-11-------------|-10------12-----|
G|-------------11----|--------------|-------------11-|-------------8--|
D|----------------14-|-13-----------|---------13-----|---------9------|
A|-------------------|---------14---|-13-------------|-12-------------|
E|-------------------|--------------|----------------|----------------|



E|-12-------------|-------------12-|-11------9------|-9--------------9--|
B|---------12--9--|-8-------12-----|-------------12-|-------------11----|
G|-9--------------|-------------9--|-8--------------|---------11--------|
D|---------9------|---------9------|---------11--9--|-11----------8--11-|
A|-------------11-|-10-------------|----------------|---------9---------|
E|----------------|----------------|----------------|-------------------|



E|------11-12--9--|--------------|-------------9-|-12------9---11-|
B|-12-------------|-12-----------|-12---11-------|----------------|
G|------8--9------|--------------|---------------|----------------|
D|-9-----------11-|-9------------|---------------|----------------|
A|----------------|--------------|---------------|----------------|
E|----------------|--------------|---------------|----------------|



E|-12------14----------|-------------14-|----------------|-12----------14-|
B|---------------11-12-|------11--------|-12---11-----14-|----------------|
G|---------11-13-------|-------------11-|----------------|----------------|
D|---------------------|----------------|----------------|----------------|
A|---------------------|----------------|----------------|----------------|
E|---------------------|----------------|----------------|----------------|



E|-12------14-----|------11-12-9-----|-9-14--9--11---|--------------|
B|-------------11-|-12------------12-|---------------|--------------|
G|---------11-----|------------------|---------------|--------------|
D|----------------|------------------|---------------|--------------|
A|----------------|------------------|---------------|--------------|
E|----------------|------------------|---------------|--------------|



E|-----------12-11-9-----|-9------------|--------------|-14----9-----14----9--|
B|--------12----------12-|--------------|--------------|----11----------11----|
G|-----11----9--8--------|--------------|--------------|----------------------|
D|--------9--------11-9--|-11-----------|--------------|----------------------|
A|-----9-----------------|--------------|--------------|----------------------|
E|-----------------------|--------------|--------------|----------------------|



E|-14----11-----14----11--|-14-----------14--------|------11-12--------|
B|----12-----------12-----|----11-14--------11-14--|-12---------12--11-|
G|------------------------|------------------------|-------------------|
D|------------------------|------------------------|------13-14--------|
A|------------------------|------------------------|-14----------------|
E|------------------------|------------------------|-------------------|



E|--------------|-11-----------|---------11--14-|-------------11-|
B|-12-----------|---------12---|-11-------------|-10------12-----|
G|--------------|--------------|-------------11-|-------------8--|
D|--------------|-13-----------|---------13-----|---------9------|
A|--------------|---------14---|-13-------------|-12-------------|
E|--------------|--------------|----------------|----------------|



E|-12-------------|-------------12-|-11------9------|-9--------------9--|
B|---------12--9--|-8-------12-----|-------------12-|-------------11----|
G|-9--------------|-------------9--|-8--------------|---------11--------|
D|---------9------|---------9------|---------11--9--|-11----------8--11-|
A|-------------11-|-10-------------|----------------|---------9---------|
E|----------------|----------------|----------------|-------------------|



E|---------12-11-9------14-12-9--|-11-----------|-7----6------9-|-12------9---11-|
B|-12--------------12-9----------|--------------|---------------|----------------|
G|----------------------11-9-----|-8------------|---------------|----------------|
D|----------------------------11-|--------------|---------------|----------------|
A|-------------------------------|--------------|---------------|----------------|
E|-------------------------------|--------------|---------------|----------------|



E|-12------14----------|-------------14-|----------------|-12----------14-|
B|---------------11-12-|------11--------|-12---11-----14-|----------------|
G|---------11-13-------|-------------11-|----------------|----------------|
D|---------------------|----------------|----------------|----------------|
A|---------------------|----------------|----------------|----------------|
E|---------------------|----------------|----------------|----------------|



E|-12------14-----|------11-12-9-----|-9-14--9--11---|--------------|
B|-------------11-|-12------------12-|---------------|--------------|
G|---------11-----|------------------|---------------|--------------|
D|----------------|------------------|---------------|--------------|
A|----------------|------------------|---------------|--------------|
E|----------------|------------------|---------------|--------------|



E|-----------12-11-9-----|-9------------|--------------|-14----9-----14----9--|
B|--------12----------12-|--------------|--------------|----11----------11----|
G|-----11----9--8--------|--------------|--------------|----------------------|
D|--------9--------11-9--|-11-----------|--------------|----------------------|
A|-----9-----------------|--------------|--------------|----------------------|
E|-----------------------|--------------|--------------|----------------------|



E|-14----11-----14----11--|-14-----------14--------|------11-12--------|
B|----12-----------12-----|----11-14--------11-14--|-12---------12--11-|
G|------------------------|------------------------|-------------------|
D|------------------------|------------------------|------13-14--------|
A|------------------------|------------------------|-14----------------|
E|------------------------|------------------------|-------------------|



E|--------------|----------------|-12----------11-|-12------14----------|
B|-12-----------|-12---11-----14-|---------14-----|---------------11-12-|
G|--------------|----------------|----------------|---------11-13-------|
D|--------------|----------------|----------------|---------------------|
A|--------------|----------------|----------------|---------------------|
E|--------------|----------------|----------------|---------------------|



E|-------------14-|----------------|-12----------14-|-12------14-----|
B|------11--------|-12---11-----14-|----------------|-------------14-|
G|-------------11-|----------------|----------------|----------------|
D|----------------|----------------|----------------|----------------|
A|----------------|----------------|----------------|----------------|
E|----------------|----------------|----------------|----------------|



E|-----11--14--11-|-12------14-----|-------------12-|-11-----------|
B|-12-------------|------12-----11-|-12------14-----|--------------|
G|----------------|---------11-----|----------------|--------------|
D|----------------|----------------|----------------|--------------|
A|----------------|----------------|----------------|--------------|
E|----------------|----------------|----------------|--------------|



E|--------------|--------------|
B|--------------|--------------|
G|--------------|--------------|
D|--------------|--------------|
A|--------------|--------------|
E|--------------|--------------|
11.130 exibições

Comentários 1

  • anmoliv anmoliv: Postado em 03/12/2011 17:17

    veja se conseguem a letra e os acordes pra violão.

Consegui tocarAinda não conseguiram tocar essa música. Seja o primeiro!
    Não consegui tocar
    Exibir acordes »
    publicidade
    fechar