Wicked Child

Castlevania

 Castlevania
Tom: D
		

E|---------------------------------|----12---11---10---9-|----------------------
B|---------------------------------|---------------------|----------------------
G|-10-10-10-9-10-12--10-10-10-9-10-|---------------------|----------------------
D|---------------------------------|---------------------|----------------------
A|---------------------------------|-x2------------------|-x2-------------------
E|---------------------------------|---------------------|----------------------



E|------------------------------------------------------------------|-----------
B|-----------------------------------------------------13-------13--|-----------
G|-14-13-14-13-14--------14--14-13-14---------14--------------------|-----------
D|-----------------12-15--------------12-15------12-15----12-15-----|-----------
A|------------------------------------------------------------------|-x2--------
E|------------------------------------------------------------------|-----------



E|-13-12--12----------------12---------------------------------10---------------
B|-----------13----13----------13----13---------------10----10----------10------
G|--------------12----12----------12----12---------10----10----------10----10---
D|-----------------------14----------------14---12----------------12------------
A|------------------------------------------------------------------------------
E|------------------------------------------------------------------------------



E|----10-|--------------13-15-17-------------12-13-15-----------10-12-13--------
B|-10----|----------------------------------------------------------------------
G|-------|---10--12--14-----------9--10--12------------7--9--10-----------------
D|-------|----------------------------------------------------------------------
A|-------|x2--------------------------------------------------------------------
E|-------|----------------------------------------------------------------------



E|-9-10-12-|---12--13--15-------------------------------------------------------
B|---------|--------------------------------------------------------------------
G|---------|--------------------------------------------------------------------
D|---------|--------------------------------------------------------------------
A|---------|x2------------------------------------------------------------------
E|---------|--------------------------------------------------------------------
269 exibições

Comentários 0

Consegui tocarAinda não conseguiram tocar essa música. Seja o primeiro!
    Não consegui tocar
    Exibir acordes »
    publicidade
    fechar