Eu Amo Mais Você

Catedral

 Catedral
Tom: C
		
Intro: C  F  C  F (4x)

C
Depois dessa ventania o temporal
G
Fez da nossa vida um mundo desigual
Dm           F
Qual é a tua? O teu segredo?
C                        G
Me diz como eu vou decifrar?

C
Minha verdade é absurda no plural
G
Mas pra mim honestamente isso é normal
Dm           F
Na minha onda, teu oceano
C                   G
Me ensina como navegar

   Dm          F
Eu amo mais você
       C
Do que eu  (2x)

( C F ) (2x)

C
A tardinha as coisas mudam sem parar
G
E a gente fala muito por falar
Dm             F
Mas de repente, a gente sente
C                     G
Que tudo sobrou num olhar

C
Penso infinitamente sem parar
G
A verdade é transparente no mirar
Dm            F
Da tua retina, minha menina
C                    G
Me diz como não te amar?

   Dm          F
Eu amo mais você
       C
Do que eu...(2x)

Base solo: C G Dm F C G


E|--12--10-10----------------------------------------------------------------------|
B|------------------------5---6---8---6----5h6p5-----------------8-----------------|
G|----------------5---7----------------------------7--5--7-------------5-4----5-4--|
D|--------------5---5---5---5---5---5---5----------------------5-----5------5------|
A|---------------------------------------------------------------------------------|
E|---------------------------------------------------------------------------------|



E|------------13---15--13--12-------------------------------------------15---------|
B|------------10---------------15--13------18--17--18--17--15-----16/17----17------|
G|---7b9r7~---------------------------14---------------------17--------------------|
D|---------------------------------------------------------------------------------|
A|---------------------------------------------------------------------------------|
E|---------------------------------------------------------------------------------|



E|----------------15b17r15---------20----------------------------------------------|
B|---15-------15---------------13--------------------------------------------------|
G|-------17------------------------------------------------------------------------|
D|---------------------------------------------------------------------------------|
A|---------------------------------------------------------------------------------|
E|---------------------------------------------------------------------------------|


C
Penso infinitamente sem parar
G
A verdade é transparente no mirar
Dm            F
Da tua retina, minha menina
C                    G
Me diz como não te amar?

   Dm          F
Eu amo mais você
       C
Do que eu  (4x)
270.385 exibições

Comentários 36

  • Dayan Dayan: Postado em 12/11/2014 17:33

    Musica show de tocar e cantar! Vlw cifraclub!

  • Semis Semis: Postado em 26/09/2013 11:38

    com o cancer no ouvido provocado pelo funk e que vai afinar o ouvido dos seus filhos, que tambem não serao capazes de fazer MUSICA como esta

  • Semis Semis: Postado em 26/09/2013 11:36

    kkk capacidade de fazer musicas bonitas como essas vcs não tem. para de criticar e vamos aplaudir.
    ou então continuem com o cancer do funk

  • andsalves andsalves: Postado em 22/09/2013 19:13

    Bando de posers, nem é necessário conhecer as duas vozes bem pra perceber que os dois timbres são bem diferenciados! Plágio é o caralho!

  • Clovis Goes Clovis Goes: Postado em 18/06/2012 17:47

    Olá!! Confiram aqui no Cifra club " Clovis Goes - A lua e o sol". Se gostar compartilhe ok, um abraço a todos! Fiquem com Deus!

  • jaozim32 jaozim32: Postado em 18/06/2012 17:30

    gostei da música, mas axo q o vocalista eh um plágio do Renato Russo carioca

    • david1314 david1314: Postado em 21/09/2012 15:14

      eu também axooo isso vey

    • edielson123 edielson123: Postado em 11/10/2012 14:53

      igualzinho kkkkkkkkkk

    • amigo_do_batera amigo_do_batera: Postado em 12/10/2012 23:13

      Procurem se informar mais galera. Cadetral e Renato Russo surgiram na mesma época. Começaram praticamente no mesmo período. Pelo que sei. =P

    • Louvor Asas Louvor Asas: Postado em 16/05/2013 11:15

      ele é parente do Renato Russo "segundo informações né" rsrsrsrsrsrs

Exibindo 10 de 36 comentários Mostrar mais ver todos »
Composição: Júlio / Kim / César
Esse não é o compositor? Avise-nos.
Contribuição: Kelvin Correções: joão , junior e mais 2 »
Exibir acordes »
publicidade
fechar