Eu Quero Sol Nesse Jardim

Catedral

 Catedral
Introdução
G--------------------------------------------------------------------------
D---------------------------2-4-5-4-2--------------------------------------
A-----------4-----------------------------3--3-3--5--5-5--3--3-3--5--5-5--- 
E--3--3-3-5---2--2-2--0--0-------------------------------------------------

"Eu quero sol nesse jardim..."
G--------------------------------------------------------------------------
D---------------------------2-4-5-4-2--------------------------------------  2X
A-----------4-----------------------------3--3-3--5--5-5--3--3-3--5--5-5--- 
E--3--3-3-5---2--2-2--0--0-------------------------------------------------

"E quero te entender..."
G-------------------------------------------------------------------------------
D--------------------------5----------------------------------------------------
A---3-3-3-3-5-5-5-5---------5-3-3-3-3-5-5-5-5-----7----3--3-3--0--0-0--5--5-5-5-
E-------------------3-3-3---------------------0-0--7-0--------------------------

(novamente)  "Eu quero sol nesse jardim..."
G--------------------------------------------------------------------------
D---------------------------2-4-5-4-2--------------------------------------  2X
A-----------4-----------------------------3--3-3--5--5-5--3--3-3--5--5-5--- 
E--3--3-3-5---2--2-2--0--0-------------------------------------------------

Solo
G--------------------------------------------------------------------------
D---------------------------2-4-5-4-2--------------------------------------  2X
A-----------4-----------------------------3--3-3--5--5-5--3--3-3--5--5-5--- 
E--3--3-3-5---2--2-2--0--0-------------------------------------------------

(novamente) "E quero te entender..."
G-------------------------------------------------------------------------------
D--------------------------5----------------------------------------------------
A---3-3-3-3-5-5-5-5---------5-3-3-3-3-5-5-5-5-----7----3--3-3--0--0-0--5--5-5-5-
E-------------------3-3-3---------------------0-0--7-0--------------------------

(novamente)  "Eu quero sol nesse jardim..."
G--------------------------------------------------------------------------
D---------------------------2-4-5-4-2--------------------------------------  2X
A-----------4-----------------------------3--3-3--5--5-5--3--3-3--5--5-5--- 
E--3--3-3-5---2--2-2--0--0-------------------------------------------------


FIM
----------------------------------------------
----------------------------------------------
---3-2----------------------------------------
-------5-2------------------------------------

OBS:

A Escala ----------- pode ser trocrada por esta que considero mais facil ------------
         -2-4-5-4-2- 							 ------------	
         -----------                                                     -7-9-10-9-7-
         0----------							 0-----------	



_______________________________________________________
Contribuição: Marcos De Faveri(helloween_cxz@hotmail.com)

Comentários 0

Composição: Kim / César / Júlio
Esse não é o compositor? Avise-nos.
Consegui tocarAinda não conseguiram tocar essa música. Seja o primeiro!
    Não consegui tocar
    publicidade
    fechar