Hoje (solo)

Catedral

 Catedral
Esse eh o solo q o Julio Cezar faz no início da musica, 
lembrem-se ele continua mesmo quando o Kim começa a cantar,
esse ta certinho sem nium erro 

tambem to pondo no Guitar pro pra quem quiser Vlw

Aquela partezimha dificil de tiar de ouvido pq eh rápida:
G||--------7----9-9p7-----7--------------------------|
D||--7h-9----9----------9----9p7-5-7-5---------------|
A||-------------------------------------7-5----------|
E||--------------------------------------------------|

e a continuação
G||-----------------------|---------------------|-------------------------|------------------|
D||-----------------------|---------------------|-------------------------|------------------|
A||--7----7-----5-----5--7|-7------5-----5--7-9-|--7----7-----5-----5--7--|------------------|
E||----------7-----7------|-----7-----7---------|----------7-----7--------|----7---7---7---7-|
______________________________________________________

Comentários 2

  • Andrew Andrew: Postado em 04/07/2013 19:11

    esse solo tá em D mas a musica é em E ¬¬'

  • kiko kiko: Postado em 11/06/2013 21:00

    esse ta certinho sem nium heheheeh

Composição: Sabe quem é o compositor? Envie pra gente. Contribuição: Artch
Consegui tocarAinda não conseguiram tocar essa música. Seja o primeiro!
    Não consegui tocar
    publicidade
    fechar