Quem Disse Que o Amor Pode Acabar

Catedral

 Catedral
Tom: C
		
(intro) C G Dm F

(solo) C G Dm F


E|------------------------------------------------
B|--5-5-5-6-8-----------5/6-6-5-5-----------------
G|------------7-7-7-7-7-----------7---------------
D|---------------------------------7-7-7-7-7------
A|------------------------------------------------
E|------------------------------------------------



E|------------------------------------------------
B|--5-5-5-6-8/10-8-8-8-3/6-6-5-5------------------
G|-------------------------------7-5--------------
D|------------------------------------------------
A|------------------------------------------------
E|------------------------------------------------


C  G         Dm         E|1-1-2-3-------------- (feito em algumas partes dos versos
Eu   não entendi                       sempre que a nota G vai entrar - exceto refrão)
F		   C   G        Dm
Por que nunca consegui   te responder
F		    Am  Dm    G
Se tudo o que eu queria   era você
F  	Dm	G
Não sei   o que dizer

C  G         Dm
Eu   não percebi
F		   C   G        Dm
Que a razão era maior    e adormeci
F		    Am  Dm    G
No momento mais difícil   te perdi
F  	Dm	G
Mas nunca desisti

		   C  G  Dm      F
Quem disse que o amor    pode acabar?
C			  G   Dm     F  Fm  C
Quem foi que disse que o amor pode acabar    (2x)

(solo)  C G Dm F


E|-----------------------------------------7-8-10--I
B|-8-6-5h6-----------------5h6-5h6-5h6/8--8-----8--I
G|--------7-6-5h6-5h6-5h6-----7---7----------------I
D|---------------8---8---8-------------------------I
A|-------------------------------------------------I
E|-------------------------------------------------I



E|-------------------------------------------------I
B|-6/8-6-5-6-6/8-6-5h6-----------------------------I
G|-----------------75h6----------------------------I
D|---------------------75h6------------------------I
A|-------------------------7-6-5-------------------I
E|-------------------------------------------------I
118.008 exibições

Comentários 1

  • lucas16996 lucas16996: Postado em 14/09/2011 14:33

    Música muuuuito linda ,postem a video aula ^^ vlw

Composição: Kim e Júlio C.
Esse não é o compositor? Avise-nos.
Contribuição: '' big alex " Correções: Dann , Kelvin e mais 3 »
Exibir acordes »
publicidade
fechar