Você

Catedral

 Catedral
(intro / durante a música)

   G                 D/F#
G------------------------------------------------------------------
D------------------------------------------------------------------
A-------5------5-------------5---------5---------------------------
E-3-3-----3-3-----3---2---2-------2--2----2------------------------
B------------------------------------------------------------------

   Em                       C ->(slide)-> D          C
G-------------------------------------------------------------------
D-----------------------------------5---------7------5--------------
A-------2------------0-2----3--3------5--5-------3------------------
E-0-0-------------0-------------------------------------------------
B-------------------------------------------------------------------

Comentários 0

Composição: Kim
Esse não é o compositor? Avise-nos.
Contribuição: ruanguitar.
publicidade
fechar