Mal Nenhum

Cazuza

 Cazuza
Tom: G
		
(Cazuza e Lobão)

intr.:
        (         2x                     )   (     1x                        )

riff:e||-----------------------------------|----------------------------------|
     B||----0-------0-------0-------0------|------0-------0-------0-------0---|
     G||------0-------0-------0-------0----|----0---0---0---0---0---0---0---0-|
     D||--2-----2-4-----4-5-----5-4-----4--|----------4-------5-------4-------|
     A||-----------------------------------|--0-------------------------------|
     E||-----------------------------------|----------------------------------|



         (          1x               ) (   Em    )
     e||-----------------------------|--0--------|
     B||-------0--------------0------|--0--------|
     G||-----0----0---------0---0----|--0--------|
     D||---2-------2------2-------2--|--2--------|
     A||-3--------------5------------|--2--------|
     E||-----------------------------|--0--------|


Em
Nunca viram ninguém triste
A
Por que não me deixam em paz
C7			A
As guerras são tão tristes
Em
E não tem nada de mais
Me deixem bicho acuado
          A
Por um inimigo imaginário
   C7                 A
Correndo atrás dos carros
     Em
Como um cachorro otário
Me deixem ataque equivocado
A
Por um falso alarme
C7M                  A
Quebrando objetos inúteis
          Em
Como quem leva uma topada.
			A
Me deixem amolar e esmurrar
             C7M
A faca cega, cega da paixão
A			Em
E dar tiros a esmo e ferir
o mesmo cego coração.
Não escondam suas crianças
A
Nem me chamem o síndico
        C7M
Nem me chamem a polícia
         A	          Em
Nem me chamem o hospício, não
                   A         Am
Eu não posso causar mal nenhum
       C
A não ser a mim mesmo
       D
A não ser a mim mesmo
       Em                         A     Am
A não ser a mim mal ma ma ma ma mal mal nenhum
       C	    D
a não ser a mim mesmo
Em
A não ser a mim.
48.579 exibições

Comentários 1

Composição: Cazuza / Lobão
Esse não é o compositor? Avise-nos.
Contribuição: Marly
Exibir acordes »
publicidade
fechar