Tom: G
		
Intro: G D C G D C

      G                   D                    C                        G
E|-------------7------------------7-7-7-------------------10---9---8--7---|
B|------8--10----10--8--8^10-10---------10--8--8----------12--11--10--8---|
G|---7-----------------------------------------9--------------------------|
D|------------------------------------------------------------------------|
A|------------------------------------------------------------------------|
E|------------------------------------------------------------------------|


  D
E|----------------------------------------7-7-7---------------------------|
B|----------------------------------------------10--8---8^10--10----------|
G|---7^9---7---------------------------7----------------------------------|
D|------------10--9--7------9---------------------------------------------|
A|----------------------10------------------------------------------------|
E|------------------------------------------------------------------------|


                C                           G
E|-7-7-7---------------------------7-----10-8-7---------------------------|
B|------10--8---8-----------7-8-10--------------10-8-7--------------------|
G|--------------9-------7-9----------------------------9-7----------------|
D|---------------------------------------------------------10-9-7---------|
A|----------------------------------------------------------------10------|
E|------------------------------------------------------------------------|


              D  C              G
Palavras de amor    jogadas ao vento
      D     C                     G
Sua imagem     não sai do meu pensamento
                      D    C                      G
Ninguém me tira essa dor        nem as marcas do tempo
                    D                      C
O que me falta é coragem   pra dizer a verdade
                G
E enfrentar o momento

            D                    C
Só queria dizer pra você que te amo.
             G                    D
E não vejo saída, nosso caso é marcado
               C                   G
Nosso amor é jurado  você é minha vida
               D                  C                   G
Vê se volta correndo pra mim sem você eu não durmo direito.
                      D                C
Quero estar em seus braços e ouvir de você
                     G
Te amo de qualquer jeito

Solo:

      G                   D                    C                        G
E|-------------7------------------7-7-7-------------------10---9---8--7---|
B|------8--10----10--8--8^10-10---------10--8--8----------12--11--10--8---|
G|---7-----------------------------------------9--------------------------|
D|------------------------------------------------------------------------|
A|------------------------------------------------------------------------|
E|------------------------------------------------------------------------|


  D
E|----------------------------------------7-7-7---------------------------|
B|----------------------------------------------10--8---8^10--10----------|
G|---7^9---7---------------------------7----------------------------------|
D|------------10--9--7------9---------------------------------------------|
A|----------------------10------------------------------------------------|
E|------------------------------------------------------------------------|


                C                           G
E|-7-7-7---------------------------7-----10-8-7---------------------------|
B|------10--8---8-----------7-8-10--------------10-8-7--------------------|
G|--------------9-------7-9----------------------------9-7----------------|
D|---------------------------------------------------------10-9-7---------|
A|----------------------------------------------------------------10------|
E|------------------------------------------------------------------------|


              D  C              G
Palavras de amor    jogadas ao vento
      D      C                     G
Sua imagem       não sai do meu pensamento
                      D    C                    G
Ninguém me tira essa dor      nem as marcas do tempo
                    D                      C
O que me falta é coragem   pra dizer a verdade
                G
E enfrentar o momento

            D                    C
Só queria dizer pra você que te amo.
             G                    D
E não vejo saída, nosso caso é marcado
               C                   G
Nosso amor é jurado  você é minha vida
               D                  C                   G
Vê se volta correndo pra mim sem você eu não durmo direito.
                      D                C
Quero estar em seus braços e ouvir de você
                     G
Te amo de qualquer jeito

            D                    C
Só queria dizer pra você que te amo.
             G                    D
E não vejo saída, nosso caso é marcado
               C                   G
Nosso amor é jurado  você é minha vida
               D                  C                   G
Vê se volta correndo pra mim sem você eu não durmo direito.
                      D                C
Quero estar em seus braços e ouvir de você
                     G
Te amo de qualquer jeito

                      D                C
Quero estar em seus braços e ouvir de você
                     G
Te amo de qualquer jeito

     G                   D                    C                        G
E|-------------7------------------7-7-7-------------------10---9---8--7---|
B|------8--10----10--8--8^10-10---------10--8--8----------12--11--10--8---|
G|---7-----------------------------------------9--------------------------|
D|------------------------------------------------------------------------|
A|------------------------------------------------------------------------|
E|------------------------------------------------------------------------|

Comentários 1

  • de_poteitou de_poteitou: Postado em 07/10/2011 16:23

    Mto boa, nem sabia que era tao facil assim, quando vi fiquei ate feliz

Composição: Cristian Weber/ Markito
Esse não é o compositor? Avise-nos.
Contribuição: Tavares Correções: hofman e mais 1 »
Exibir acordes »
publicidade
fechar