Tentei Te Esquecer

César Menotti e Fabiano

 César Menotti e Fabiano
Tom: D
		
Intro: D  G  A  Bm  G  A

Solo:


E|-------2-2h3p2---------------------2-3-5~-5p3-2-5-7-5-3---------2---2-5~-|
B|---3-5---------3---------------3-5----------------------3-5-3-5---5------|
G|-2---------------2h4-2h4p2~~-2-------------------------------------------|
D|-------------------------------------------------------------------------|
A|-------------------------------------------------------------------------|
E|-------------------------------------------------------------------------|


          D             G          A
Ah! Como quero te encontrar novamente
         D         G       A
Estou sozinho procurando você
          D            G           A
Ah! Como quero te abraçar loucamente
             Em                   A                   D         G A
Olhar dentro dos teus olhos e dizer "não vivo sem você"
         D            G          A
O tempo passa cai à noite e o dia vem
         D                  G       A
Tento fingir, mas não deu pra esconder...
         D                G           A
Ah! Eu sonhei nas noites vagas com seu amor
   F#       Bm         G         A
Provei teu beijo, magoei minha dor
                D        G          A
Tentei te esquecer             não deu
              D          G             A
Pensei que fosse mais forte que esse amor
             D          G          A

Ó minha paixão                 sou teu
                   D         G           A
Por mais que eu queira disfarçar como estou
      F#             Bm    A      G                 G D/F#
O meu coração se nega a aceitar
         Em             A7            D        A
Passa o tempo não me esqueço de te amar
         Em             A7            D
Passa o tempo não me esqueço de te amar

Final:


E|-------2-2h3p2----2------------------------------------------------------|
B|---3-5---------5--3------------------------------------------------------|
G|-2----------------2------------------------------------------------------|
D|-------------------------------------------------------------------------|
A|-------------------------------------------------------------------------|
E|-------------------------------------------------------------------------|
134.745 exibições

Comentários 3

  • gustavo gustavo : Postado em 05/12/2014 19:25

    fica boa no tom de do maior

  • gustavo gustavo : Postado em 05/12/2014 18:37

    fica boa no to de do maior

  • Alzirio Alzirio: Postado em 09/03/2013 12:59

    Cara, quem foi que cifrou esta música, pelo amor de Deus...

Composição: Cruz Gago
Esse não é o compositor? Avise-nos.
Contribuição: Junior Correções: Airton , robinho e mais 3 »
Exibir acordes »
publicidade
fechar