Champanhe e Água Benta

Charlie Brown Jr.

 Charlie Brown Jr.
Tom: G#
		
Introdução (2x)
 Ouça a música para pegar o tempo exato...

e|----------------------------------------------------------------
B|----------------------------------------------------------------
G|----------------------------------------------------------------
D|---------------------------1-3-3-3-1-1-1------------------------
A|-------------1-1-1-2-2-2-3--------------3-3-3-2-2-2-1-----------
E|-1-1-1-4-4-4------------------------------------------4---------


Riff 1 - Pós-Introdução (é tocado durante todo o verso)

 (Fm      G#)
e|----------------------
B|----------------------
G|----------------------
D|----3-------6-6-6-----
A|----------------------
E|-1----4--4------------


Riff 1
Atitude a gente tem
E sorte a gente também tem
De um jeito ou de outro
Pode crê que elas vêm
mas não só pra um rolé
Pra muito mais que isso
O que elas querem é aquilo
Você tá ligado disso
Vem! Vem com tudo
Me leva pro seu mundo
Toda patricinha
Adora um vagabundo
Se fui pobre não me lembro
E se fui rico me roubaram
O meu esporte predileto
É o mesmo do Romário

Pré-Refrão

e|----------------------------------------------------------------
B|----------------------------------------------------------------
G|----------------------------------------------------------------
D|---------------------------1-3-3-3-1-1-1------------------------
A|-------------1-1-1-2-2-2-3--------------3-3-3-2-2-2-1-----------
E|-1-1-1-4-4-4------------------------------------------4---------



                                                Eb
e|---------------------------------------------------------------------
B|----------------------------------------------4----------------------
G|----------------------------------------------3----------------------
D|-----------------------------1-1-3-3-3-1-1-1--1----------------------
A|-------------------1-1-1-3-3-----------------------------------------
E|-1-1-1-3-3-3-4-4-4---------------------------------------------------



Refrão
G#			F#m
Não tão complicado demais
			Fm  F#m
Mas nem tão simples assim
G#                    Eb
Não tão complicado demais
                        F#
Mas nem tão simples assim


Riff 1
Minha vida é tipo um filme de Spike Lee
Verdadeiro complicado mal-humorado e violento
Você é bonito
E eu sou feio
Sua mãe te ama
Mas eu te odeio
Quem tem boca fala o que quer
Só não pode ser mane
Coração de vagabundo bate na sola do pé
Zica tem de monte, zóião da até em penca
Eu tomo banho de banheira com champagne e água-benta

Pré-Refrão

e|----------------------------------------------------------------
B|----------------------------------------------------------------
G|----------------------------------------------------------------
D|---------------------------1-3-3-3-1-1-1-------------------------
A|-------------1-1-1-2-2-2-3--------------3-3-3-2-2-2-1-----------
E|-1-1-1-4-4-4------------------------------------------4---------



                                                Eb
e|---------------------------------------------------------------------
B|----------------------------------------------4----------------------
G|----------------------------------------------3----------------------
D|-----------------------------1-1-3-3-3-1-1-1--1----------------------
A|-------------------1-1-1-3-3-----------------------------------------
E|-1-1-1-3-3-3-4-4-4---------------------------------------------------


Refrão
G#			F#m
Não tão complicado demais
			Fm  F#m
Mas nem tão simples assim
G#                    Eb
Não tão complicado demais
                        F#
Mas nem tão simples assim

Fm
Você é bonito
Fm
E eu sou feio
Fm
Sua mãe te ama
Fm
Mas eu te odeio
	 	  Fm
Eu vim de skate sou guereiro do asfalto
		  Fm
Quem fecha comigo joga a mão pro alto
		  Fm
Eu vim de skate sou guereiro do asfalto
		  Fm
Quem fecha comigo joga a mão pro alto, bem alto

Refrão
G#			F#m
Não tão complicado demais
			Fm  F#m
Mas nem tão simples assim
G#                    Eb
Não tão complicado demais
                        F#
Mas nem tão simples assim

Final (2X)

e|---------------------------------------------------------------------
B|---------------------------------------------------------------------
G|---------------------------------------------------------------------
D|-3-3-3-1-1-1---------------------------------------------------------
A|-------------3-3-3-1-1-1-----1-3-4-4-4-3-3-3-1-1-1-------1-3---------
E|-------------------------4-4-----------------------4-4-4-------------



e|----------------------------------------------------------------
B|----------------------------------------------------------------
G|----------------------------------------------------------------
D|----------------------------3-----------------------------------
A|-------------1-1-1-2-2-2-3----4-4-4-3-3-3-1-1-1-----1-3---------
E|-1-1-1-4-4-4------------------------------------4-4-------------



Fim:

E|--4-6-4-6---16-16-16-------
B|--4-6-4-6---16-16-16-------
G|---------------------------
D|----------------------3----
A|----------------------3----
E|----------------------1----

Comentários 6

  • loren2one loren2one: Postado em 12/11/2014 21:39

    video aula please!

  • josue josue: Postado em 21/03/2014 16:43

    foda essa música assim como todas do charlie brown jr

  • lhlh lhlh: Postado em 21/01/2014 00:56

    pq e foda de toca

  • Dandara Dandara: Postado em 04/10/2013 20:59

    Video aula !

  • leodtna leodtna: Postado em 17/06/2012 18:05

    video aula pra q ueeiii

  • weslleyholiday weslleyholiday: Postado em 10/05/2012 16:51

    tem que fazer video aula dessa musica :D

Composição: Champignons / John Fortis / T. Weymouth
Esse não é o compositor? Avise-nos.
Contribuição: Pedro Correções: deku »
Exibir acordes »
publicidade
fechar