Cidade Grande

Charlie Brown Jr.

 Charlie Brown Jr.
Tom: A
		
Intro:

  F#m (deixe soar o F#m)
D|--------1-2-4h2------
A|--0h2-4--------------
E|-2~~~~~~~~~~~~~~~~~~~


Solo 1:

E|----------------------------------12h11--------12~-
B|---------------------------------------14-12-14----
G|-6h7-6~---------------6-7-9-7-6--------------------
D|-------9-7-9/11----7-9---------9-------------------
A|----------------9-9--------------------------------
E|---------------------------------------------------


solo 2:

E|----------------------------------------------------------10h12-9/10~~
B|----------------------------------------------------------------------
G|-6h7-6~-6/4-2-4--4h6---6-6/7----6h7-6~-6/4-2-4--4h6-9b-9b-------------
D|---------------------4--4---4~----------------------------------------
A|----------------------------------------------------------------------
E|----------------------------------------------------------------------


E isso que disser que eu ja me sinto bem melhor...
F#m
Bm
A
F#m

Solo 1: Novamente

Solo 2: Novamente

Tem mas um solo o principal que e muito ruim de tirar se alguem tira !!
42.545 exibições

Comentários 0

Composição: Charlie Brown Jr
Esse não é o compositor? Avise-nos.
Contribuição: renan
Exibir acordes »
publicidade
fechar