Charlie Brown Jr.

Como Tudo Deve Ser

1.087.239 exibições
Tom: E
Intro 6x:

E|------------------------------------------------------|
B|----------------2---0---------------------------------|
G|----------------------1-------------------------------|
D|-------6---4r6----------4-2----4-2r4---9--7-6r7r6-----|
A|----7----7--------------------4-4------7--------------|
E|-5--------------2-------------------------------------|


E|------------------------------------------------------|
B|------------------------------------------------------|
G|--6-4--9-8-6-4------------4-6-4-------4------6--------|
D|---------------6-4-6--4h6-------6-4-6------4----------|
A|-----------------------------------------0------------|
E|------------------------------------------------------|


E|------------------------------------------------------|
B|------------------------------------------------------|
G|---4------------4-6-9-8-4---4-4h6---------------------|
D|-----6-4-6--4h6-----------6---------------------------|
A|------------------------------------------------------|
E|-2----------------------------------------------------|


( A F#m C#m E )
Um belo sonho veio então despertar minha vontade
tudo vale a pena para te reencontrar
me livrei de tudo aquilo e consegui mudar
tudo que foi feito em troca de uma
amizade a mais / mas felicidade é poder estar com
quem voce gosta em algum lugar, é foda
ser louco, advogado do mundo mas, como tudo deve ser?
é foda ser taxado de doido vagabundo mas, como tudo deve ser?

( F#m A )
Foi quando te encontrei
ouvindo um som e olhando o mar
Foi quando te encontrei
ouvindo o som do mar rolar

( A F#m C#m E )
Eu não nasci ontem, bem como, quando e por onde mas
como tudo deve ser, com as balizas do nosso sistema
Sigo imprimindo meu sonho na história como tudo deve ser
Um belo sonho veio então despertar minha vontade
Tudo vale a pena para te reencontrar
Me livrei de tudo aquilo e consegui mudar
Tudo que foi feito em troca de uma amizade mas

( F#m A )
Foi quando te encontrei
ouvindo um som e olhando o mar
Foi quando te encontrei
ouvindo o som do mar rolar

(A F#m C#m E)
Eu não preciso de promessas e acho que você também
Eu não tento ser perfeito e acho que você também
Dias e noites pensando no que fiz eu sou um vencedor eu lutei pelo que quis
Mas quando não se pode mais mudar, tanta coisa errada
Vamos viver nossos sonhos, temos tão pouco tempo

( F#m A )
Foi quando te encontrei
ouvindo o som e olhando o mar
Foi quando te encontrei
ouvindo o som do mar rolar


Solo 7x: A F#m C#m E
E|------------------------------------------------------|
B|--10/12-10-9----10/12-10-9-------10/12-10-9-----------|
G|-------------9-------------9----------------9---------|
D|-----------------------------11---------------11------|
A|------------------------------------------------------|
E|------------------------------------------------------|


E|------------------------------------------------------|
B|------------------------------------------------------|
G|------9----9h11-11h13-11--9-9------9----9h11-11h13----|
D|-9h11---11--------------------9h11---11---------------|
A|------------------------------------------------------|
E|------------------------------------------------------|


E|------------------------------------------------------|
B|------------------------------------------------------|
G|-11-9-9-------9------6--------6--------6--------------|
D|---------9h11---11-----4-2-4----4-2-4----4-2-4--------|
A|------------------------------------------------------|
E|------------------------------------------------------|


E|------------------------------------------------------|
B|-----------------------10/12-10-9----10/12-10-9-------|
G|-4/6--6/8--8/9--9/11--------------9-------------9-----|
D|--------------------------------------------------11--|
A|------------------------------------------------------|
E|------------------------------------------------------|


E|------------------------------------------------------|
B|-10/12-10-9-------------------------------------------|
G|------------9----------9----9h11-11h13-11-9-9---------|
D|--------------11--9h11---11---------------------------|
A|------------------------------------------------------|
E|------------------------------------------------------|


E|---------------------------12-11-----12-11------------|
B|---------------------------------12--------12-9-------|
G|------9----9h11-11h13-13------------------------------|
D|-9h11---11--------------------------------------------|
A|------------------------------------------------------|
E|------------------------------------------------------|


E|-14-12-----14-12-----12-12h14-14/16-------------------|
B|-------14--------14-----------------------------------|
G|------------------------------------------------------|
D|------------------------------------------------------|
A|------------------------------------------------------|
E|------------------------------------------------------|


( F#m A )
Foi quando te encontrei
ouvindo o som e olhando o mar     (2x)
Foi quando te encontrei
ouvindo o som do mar rolar

O mar, o mar, o mar...
    Composição: ChampignonsColaboração e revisão:
    • Pedro Redó
    • Yanno
    • Pablo
    • Aéro
    • +3

    Comentários 100

    140 .
    • Matheus Matheus: Em 24/04/2015 15:14

      mto boa

    • leo leo: Em 09/12/2014 13:25

      Alguem sabe o tempo dessa música pra colocar no metronomo?

    • Robson Robson: Em 23/09/2014 16:07

      O cara ensina muito bem

    • joaopedro.fernandes.92123015 joaopedro.fernandes.92123015: Em 22/09/2014 22:54

      esse cara nao ensina direito, parace que ele cheira cocaina explica muito rapido !

      • Cleiton Cleiton: Em 02/11/2014 19:10

        Paga um prof que ensina melhor

      • João João: Em 21/05/2015 11:34

        vc é burro

    • deepbm deepbm: Em 29/08/2014 15:55

      Reclamam demais.. tocam nada

    • tryagami tryagami: Em 07/05/2014 10:58

      aff, esses vândalos, mudaram a cifra da video aula, poxa, se vocês tem uma versão diferente, criem uma cifra nova caramba.

    • okdha okdha: Em 30/04/2014 10:21

      Facil' Briigadu Cifra Club! \o/

    Exibindo 10 de 100 comentários Mostrar mais ver todos »
    140 cancelar
    0:00 / 0:00

    Capítulos

      play/pausefechar subir/descer velocidade
      6ª corda E5ª corda A4ª corda D3ª corda G2ª corda B1ª corda E
        acordes
        publicidad
        fechar
        ok