Como Tudo Deve Ser

Charlie Brown Jr.

 Charlie Brown Jr.
Versão 1
-======-

(Baixo de 4 cordas)

Solo Inicial: (Baixo)

 D|----------------11--9--9----------|---------------9--7-7-----------|   
 A|-------11-9-11------------11--9--7|---------9-8-9-----------9--10--9|
 E|--9-9-----------------------------|--9--9--------------------------|

 Refrão:

 G|---------------14-14141414-------|
 D|11-11-11-11-11-------------------| 
 A|---------------------------------|
 E|---------------------------------|
  
 Finalização:

 G|------13------|
 D|--11----------|
 A|----------12--|
 E|--------------|

Versão 2
-======-

(Baixo de 5 cordas)

Introduçao e verso

G -------------------|-------------------|----------------|-------------|-------------
D -------16----14-16-|-20----------------|----------------|-------19----|-------------
A ----14-------------|-19------20-19-----|----18----------|-17-19-17----|-16-17-16----
E -15--------15------|---------------19--|-18---18--------|-------------|-------------

Refrão
G -------------------------------------------------------------------|
D -6-6-6-6-9-9-9-9--18-18-18-18-14-14-14-14--18-18-18-18-14-14-14-14-|
A -------------------------------------------------------------------|
E ---4------7--------16-16-16-16-12-0-12-12--16--16--------0---0-----|
B -------------------------------------------------------------------|

Final

G --13---------------|
D ------11-----------|
A -------------------|
E ----------14-------|
B -------------------|

Comentários 19

  • jefferson jefferson: Postado em 14/01/2014 20:16

    muito foda essa musica!!!

  • celson.fernando.5 celson.fernando.5: Postado em 17/08/2013 23:19

    Galera eu sei o refrão aq e corrigi a tab so to esperando os cara coloca aprovar la.

  • allan.carlos allan.carlos: Postado em 28/02/2013 08:18

    N sei vcs mas acho que existem musicas mais dificeis que essa pra se fazer video aula

  • limaobass limaobass: Postado em 06/01/2013 16:03

    kkkkkkkkkkk rachei de rir com essa de seja criativo UAHSUAHUSAHUSA

  • grilinho00 grilinho00: Postado em 08/12/2012 21:22

    gente vo tenta agora

  • wel87 wel87: Postado em 01/11/2012 20:14

    queria ver mais video aula de contra baixo vlw

  • wel87 wel87: Postado em 10/09/2012 19:37

    vlw

  • wel87 wel87: Postado em 10/09/2012 19:37

    queria video aula dessa musica no contra baixo

  • fernandoo.o fernandoo.o: Postado em 30/07/2011 22:30

    concordo com o Eron, pra mim foi do msm jeito; façam assim: decorem o tab escutem a musica e tentem se encaixar no ritmo da baladinha

  • Eron Eron: Postado em 14/07/2011 13:00

    Nem precisa de video aula naum pessoal, eu consigo fazer o solo namoral, e junto com ele a musica, só vcs terem ouvido e acompanharem o bxo

    • burro preto burro preto: Postado em 15/07/2011 10:44

      é cara mais essa tab ta toda errada!!

    • limaobass limaobass: Postado em 06/01/2013 16:04

      num ta toda errada...só o refrão que ta zuado....o demais ta todo certo

Exibindo 12 de 19 comentários Mostrar mais ver todos »
Composição: Champignons / John Fortis / T. Weymouth
Esse não é o compositor? Avise-nos.
Contribuição: Dall'Agnol Correções: fguilherme.lost , Lucas e mais 3 »
  1. Até Você Voltar - Henrique e Juliano Manteve-se 87.717 exibições
  2. Domingo de Manhã - Marcos e Belutti Manteve-se 75.925 exibições
  3. Cuida Bem Dela - Henrique e Juliano Manteve-se 51.165 exibições
  4. Diz Pra Mim - Banda Malta Manteve-se 43.013 exibições
  5. Raridade - Anderson Freire Manteve-se 41.457 exibições
  6. Recaídas - Henrique e Juliano Manteve-se 41.071 exibições
  7. Só Os Loucos Sabem - Charlie Brown Jr. Manteve-se 30.175 exibições
  8. Pra Você - Onze:20 Manteve-se 29.947 exibições
  9. Let Her Go - Passenger Manteve-se 28.837 exibições
  10. Tudo Que Você Quiser - Luan Santana Manteve-se 28.092 exibições
  1. Henrique e Juliano- Manteve-se 270.802 exibições
  2. Jorge e Mateus- Manteve-se 216.651 exibições
  3. Legião Urbana- Manteve-se 198.586 exibições
  4. Charlie Brown Jr.- Manteve-se 144.506 exibições
  5. Fernandinho- Manteve-se 117.071 exibições
  6. Luan Santana- Manteve-se 115.655 exibições
  7. Bruno e Marrone- Manteve-se 112.849 exibições
  8. Marcos e Belutti- Manteve-se 93.756 exibições
  9. Thalles Roberto- Manteve-se 91.517 exibições
  10. Victor e Leo- Manteve-se 88.181 exibições

Cifras e tabs

Fórum Cifra Club

Aprenda

Cifra Club News

Mais Serviços Cifra Club ID

Studio Sol

©1996 - 2014 Cifra Club · o primeiro, maior e mais acessado do Brasil · 341 mil músicas · 6.3 milhões pessoas cadastradas

publicidade
fechar