Charlie Brown Jr.

Como Tudo Deve Ser

86.361 exibições
(Baixo de 4 cordas)

Solo Inicial: (Baixo)

 D|----------------11--9--9----------|---------------9--7-7-----------|   
 A|-------11-9-11------------11--9--7|---------9-8-9-----------9--10--9|
 E|--9-9-----------------------------|--9--9--------------------------|

 Refrão:

 G|---------------14-14141414-------|
 D|11-11-11-11-11-------------------| 
 A|---------------------------------|
 E|---------------------------------|
  
 Finalização:

 G|------13------|
 D|--11----------|
 A|----------12--|
 E|--------------|

(Baixo de 5 cordas)

Introduçao e verso

G -------------------|-------------------|----------------|-------------|-------------
D -------16----14-16-|-20----------------|----------------|-------19----|-------------
A ----14-------------|-19------20-19-----|----18----------|-17-19-17----|-16-17-16----
E -15--------15------|---------------19--|-18---18--------|-------------|-------------

Refrão
G -------------------------------------------------------------------|
D -6-6-6-6-9-9-9-9--18-18-18-18-14-14-14-14--18-18-18-18-14-14-14-14-|
A -------------------------------------------------------------------|
E ---4------7--------16-16-16-16-12-0-12-12--16--16--------0---0-----|
B -------------------------------------------------------------------|

Final

G --13---------------|
D ------11-----------|
A -------------------|
E ----------14-------|
B -------------------|

Versão 3 

E -------9--9-----------------------------------------------|	
A -------------11--9--11---------------11--9--7-------------|
D ------------------------11--11--9-------------------------|

E -------9--9-----------------------------------------------|	
A -------------9--7--9--------------------------------------|
D ------------------------9--9--7----6--7--6----------------|

E -------9--9-----------------------------------------------|	
A -------------11--9--11---------------11--9--7-------------|
D ------------------------11--11--9-------------------------|

E -------9--9-----------------------------------------------|	
A -------------11--9--11------------------------------------|
D ------------------------9--9--7--6--7--6------------------|
    Composição: ChampignonsColaboração e revisão:
    • Lucas Fernando
    • fguilherme.lost
    • Lucas
    • gabriel.metal
    • +2

    Comentários 21

    • Lucas Fernando Lucas Fernando: Postado em 18/01/2015 05:08

      Galera, fiz uma de ouvido que ficou muito mais parecida com essa musica do que esta cifra atual... espero a aprovação apenas....

    • emanoel emanoel: Postado em 23/10/2014 10:11

      muito boa essa música!

    • jefferson jefferson: Postado em 14/01/2014 20:16

      muito foda essa musica!!!

    • celson.fernando.5 celson.fernando.5: Postado em 17/08/2013 23:19

      Galera eu sei o refrão aq e corrigi a tab so to esperando os cara coloca aprovar la.

    • allan.carlos allan.carlos: Postado em 28/02/2013 08:18

      N sei vcs mas acho que existem musicas mais dificeis que essa pra se fazer video aula

    • limaobass limaobass: Postado em 06/01/2013 16:03

      kkkkkkkkkkk rachei de rir com essa de seja criativo UAHSUAHUSAHUSA

    • grilinho00 grilinho00: Postado em 08/12/2012 21:22

      gente vo tenta agora

    • wel87 wel87: Postado em 01/11/2012 20:14

      queria ver mais video aula de contra baixo vlw

    • wel87 wel87: Postado em 10/09/2012 19:37

      vlw

    • wel87 wel87: Postado em 10/09/2012 19:37

      queria video aula dessa musica no contra baixo

    Exibindo 10 de 21 comentários Mostrar mais ver todos »

    conseguiu tocar?

    • Lucas
    • Caio
    • riick_alves
    • allan.carlos
    • JOAOZINHO
    • toper
    • burro preto
    • •••

    covers

    Grave um vídeo tocando Como Tudo Deve Ser e mande pra gente!

    Ex.: http://www.youtube.com/watch?v=0IvSvIwGdwk
    ver covers de outras músicas »
    0:00 / 0:00

    Capítulos

      play/pausefechar subir/descer velocidade
      6ª corda E5ª corda A4ª corda D3ª corda G2ª corda B1ª corda E
        Exibir acordes
        Feedback
        publicidad
        fechar
        ok