Criando Anti-Corpus

Charlie Brown Jr.

 Charlie Brown Jr.
Tom: C
		
ESSA MÚSICA É INSTRUMENTAL
E É + OU - ASSIM:


E|---------------------------------------------------|
B|---------------------------------------------------|
G|---------------------------------------------------|
D|---------------------------------------------------|(várias x)
A|---------------------------------------------------|
E|--7-7-7-7-8-8-8-7-7-5-7-7-7-7-8-7-7-5--------------|



E|---7-7---3-3--3-3---5-5---------------------|
B|---7-7---3-3--3-3---5-5---------------------|
G|-9----5-----------7-------------------------|
D|-9----5-----5-----7-------------------------|(2x)
A|-7----3-----5-----5-------------------------|
E|------------3-------------------------------|



E|---------------------------------|---------------|
B|---------------------------------|---------------|
G|---------------------------------|---------------|
D|-------2-2-2-3-3-2-2-0-0-2-0-----|2/10-----------|
A|-2-2-2-----------------------3-3-|---------------|
E|---------------------------------|---------------|



E|-12(8x)--------------------------------------------|
B|--------------12-12/13-13-12-12--------------------|
G|--------12(8x)-------------------------------------|
D|---------------------------------------------------|
A|---------------------------------------------------|
E|---------------------------------------------------|



E|-12-10-9----------------------------------------|
B|---------12-10-9-10-12-10-----------------------|
G|--------------------------12-9~~----------------|
D|------------------------------------------------|
A|------------------------------------------------|
E|------------------------------------------------|



E|---------------------------------|---------------|
B|---------------------------------|---------------|
G|---------------------------------|---------------|
D|-------2-2-2-3-3-2-2-0-0-2-0-----|2/10-----------|
A|-2-2-2-----------------------3-3-|---------------|
E|---------------------------------|---------------|
8.026 exibições

Comentários 0

Composição: Sabe quem é o compositor? Envie pra gente. Contribuição: heldinho 182 Correções: kaka_tanaka , kaka_tanaka e mais 2 »
Exibir acordes »
publicidade
fechar