Direto e Reto Sempre

Charlie Brown Jr.

 Charlie Brown Jr. Compositor: Chorão
Tom: F
		
notas:B5 Gm5 Am5 Em

(inicio)


eb|------------------------------------------|
Bb|------------------------------------------|
Gb|--------6------------------------0--------|(1x)
Db|---4-------------------------2------2-----|
Ab|-2---2------5---5---7---7------2----------|
Eb|----------3---3---5---5----0--------------|



eb|--------------------|-12^------------------|
Bb|-------6------------|-------12^-------0----|(1x)
Db|---4----------------|-------------2-----2--|
Ab|-2---2-----5---5--7-|---------------2------|
Eb|---------3---3----5-|-----------0----------|


(refrão)


eb|--------------|
Bb|-2/3-2--------|
Gb|-------4-2-4--|


(LEMBRANDO QUE A AFINAÇÃO É TODA EM "BEMOL")
 
A vida te pede mas a vida não te dá
Devagar com meu skate um dia eu cheguei lá
Eu não sei como se escreve mas sei como se faz
Minha fé é meu escudo pra tanto leva e traz
Conceitos se dissolvem num mundo globalizado
Eu tô na fé, eu tô legal, menos um revoltado

Quem me conhece de verdade continua do meu lado
Eu tenho loucos amigos que não foram comprados
Mas o brasil é o grande reino do "nhém nhém nhém"
Que embala seu delírio num grande "vai-e-vem"
Mas eu sou cabeça forte, melhor do que ninguém
Muito menos pior, o tempo prova quem é quem
(refrão)
Eu vim aqui pra vadiar uma breja com os amigos
Na coletividade, todo mundo unido
Sangue bom é sangue bom
Direto e reto sempre
Se tiver do meu lado
Pode crê que é boa gente

Eu vim aqui pra vadiar uma breja com os amigos
Na coletividade, todo mundo unido
Sangue bom é sangue bom
Direto e reto sempre
Se tiver do meu lado
Pode crê que é boa gente

Perante ao povo eu não me acho
Pois, sim, sei o que faço
Hoje eu estou no clima mas eu vim de lá de baixo
Aí, anos de trabalho eu não vou jogar no lixo
Me passa o microfone que esse aqui eu não ligo

Pensar é bom, mas o melhor é fazer
E se você não faz com a vida
A vida faz com você, então
O tempo é rei
Temos muito o que aprender
O tempo é rei
O tempo é rei

Eu vim aqui pra vadiar uma breja com os amigos
Na coletividade, todo mundo unido
Sangue bom é sangue bom
Direto e reto sempre
Se tiver do meu lado
Pode crê que é boa gente

Eu vim pra vadiar uma breja com os amigos
Na coletividade, todo mundo unido
Sangue bom é sangue bom
Direto e reto sempre
Se tiver do meu lado
Pode crê que é boa gente

28.451 exibições

Comentários 0

Composição: Chorão
Esse não é o compositor? Avise-nos.
Contribuição: heldinho 182 Correções: heldinho 182 e mais 1 »
Exibir acordes »
publicidade
fechar