Tom: A
		
(riff 1)

E|--------------------------------------|
B|--------------------------------------|
G|--------------------------------------|
D|--------------------------------------|
A|------0-2-3-2-0-2-----0-2b3rb2-2--0---|
E|--2-2-------------2-2-----------------|


(riff 2)

E|-------------------------------------------------------------------------|
B|----------7--7------7--7-----------7--7-------7--7-----------------------|
G|----4h6-6------5h6-6-----7---4h6-6------5h6-6------9--7h9h7h6------------|   (2x)
D|---------------------------7---------------------------------------------|
A|-------------------------------------------------------------------------|
E|-------------------------------------------------------------------------|



E|---------------------------------------------|
B|---------------------------------------------|
G|---------------------------------------------|
D|-2-2-2-X\--2-2-2---2-2-2-X\--2-2-2-----------|
A|-2-2-2-X\--2-2-2---2-2-2-X\--2-2-2-----------|
E|-0-0-0-X\--0-0-0---0-0-0-X\--0-0-0-----------|


(riff 1)

E|--------------------------------------|
B|--------------------------------------|
G|--------------------------------------|  
D|--------------------------------------|
A|------0-2-3-2-0-2-----0-2b3rb2-2--0---|
E|--2-2-------------2-2-----------------|


(riff 2)

E|-------------------------------------------------------------------------|
B|----------7--7------7--7-----------7--7-------7--7-----------------------|
G|----4h6-6------5h6-6-----7---4h6-6------5h6-6------9--7h9h7h6------------|  (2x)
D|---------------------------7---------------------------------------------|
A|-------------------------------------------------------------------------|
E|-------------------------------------------------------------------------|



E|---------------------------------------------|
B|---------------------------------------------|
G|---------------------------------------------|
D|-2-2-2-X\--2-2-2---2-2-2-X\--2-2-2-----------|
A|-2-2-2-X\--2-2-2---2-2-2-X\--2-2-2-----------|
E|-0-0-0-X\--0-0-0---0-0-0-X\--0-0-0-----------|


(solo)

E|-----------------------------------------------------------------|
B|-----------------------------------------------------------------|
G|---4h6h9--4h6h9--6h8h11--6h8h11--9h11h14--9h11h14----------------|   (2x)
D|-----------------------------------------------------------------|
A|-----------------------------------------------------------------|
E|-----------------------------------------------------------------|



E|----------------------------------------------------------------------------------|
B|----------14-------14-------14-------14--------17-------17-------17-------17------|
G|----13h14----13h14----13h14----13h14-----14h16----14h16----14h16----14h16---------|
D|----------------------------------------------------------------------------------|
A|----------------------------------------------------------------------------------|
E|----------------------------------------------------------------------------------|



E|---------14-------14-------14-------14-------14-------14-------------------------------|
B|---14h17----14h17----14h17----14h17----14h17----14h17-----17b19~~~~--------------------|
G|---------------------------------------------------------------------------------------|
D|---------------------------------------------------------------------------------------|
A|---------------------------------------------------------------------------------------|
E|---------------------------------------------------------------------------------------|



E|-----------------------------------------------------------------|
B|-----------------------------------------------------------------|
G|-----------------------------------------------------------------|  (2x)
D|-------------------------------------2--2--2--X\-----------------|
A|------0-2-3-2-0-2-----0-2b3rb2-2--0--2--2--2--X\-----------------|
E|--2-2-------------2-2----------------0--0--0--X\-----------------|



E|--------------------------------------|
B|--------------------------------------|
G|--------------------------------------|  (4x)  riff se repete até o final da música enquanto
D|--------------------------------------|        é tocado o último solo
A|------0-2-3-2-0-2-----0-2b3rb2-2--0---|
E|--2-2-------------2-2-----------------|



E|---------------------------------------------------------------------------------------------|
B|-5----5-5--5----5-5--5----5-5--5----5-5------------------------------------------------------|
G|-4b6--6-6--4b6--6-6--4b6--6-6--4b6--6-6--4b6rb4h2---4---2~-----------------------------------|
D|--------------------------------------------------4---4-----4~~~~----9b11~--13~~~~-----------|
A|---------------------------------------------------------------------------------------------|
E|---------------------------------------------------------------------------------------------|



E|-14-17h14----14------------------------------------------------------------------------------|
B|----------17----17-14-17h14----14------------------------------------------------------------|
G|----------------------------16----16-14-16h14----14------------------------------------------|
D|----------------------------------------------16----16-14-16h14----14------------------------|
A|----------------------------------------------------------------16----16-14-16h14/12---------|
E|-------------------------------------------------------------------------------------14~~~~--|


(riff 1) Guitarra Clean

E|-----------14--------------------------|
B|--14\------14--14\---------------------|
G|--14\------14--14\---------------------|
D|--16\----------16\---------------------|
A|---------------------------------------|
E|---------------------------------------|

Comentários 0

Composição: Sabe quem é o compositor? Envie pra gente. Contribuição: Mick Correções: ReNaN e mais 1 »
Exibir acordes »
publicidade
fechar