Charlie Brown Jr.

Ela Vai Voltar (Todos Os Defeitos de Uma Mulher Perfeita)

1.713.105 exibições
Tom: G
Intro:


        D9               D9/C             D9/B
E|---------0-----------------0--------------0---------|
B|------------3-----------------3--------------3------|
G|------2--------2--------2--------2------2-------2---|
D|---0------------------------------------------------|
A|---------------------3---------------2-------1------|
E|----------------------------------------------------|


 D9/Bb
E|-0--------------------------------------------------|
B|----3-----------------------------------------------|
G|-------2--------------------------------------------|
D|----------------------------------------------------|
A|----------------------------------------------------|
E|----------------------------------------------------|


( D9  D9/C  D9/B  D9/Bb )
Minha mente nem sempre
tão lúcida é fértil e me deu a voz
Minha mente nem sempre
tão lúcida fez ela se afastar

( D9  D9/C  D9/B  D9/Bb )
Mas ela vai voltar       (2x)

Riff:


E|-------------------------------|
B|------15-------------19--------|
G|---14-------------------19-----|
D|-------------------------------|
A|-------------------------------|
E|-------------------------------|


( D9  D9/C  D9/B  D9/Bb )
Ela não é o tipo de mulher que se entrega na primeira
Mas melhora na segunda e o paraíso é na terceira
Ela tem força, ela tem sensibilidade, ela é guerreira
Ela é uma deusa, ela é mulher de verdade
Ela é daquelas que tu gosta na primeira
Se apaixona na segunda e perde a linha na terceira
Ela é discreta e cultua com os livros
E ama os animais, tá ligado eu sou o bicho

( D9  D9/C  D9/B  D9/Bb )
Minha mente nem sempre tão lúcida é fértil e me deu a voz
Minha mente nem sempre tão lúcida fez ela se afastar

( D9  D9/C  D9/B  D9/Bb )
Mas ela vai voltar       (2x)

Riff:

( D9  D9/C  D9/B  D9/Bb )
Deixa eu te levar pra ver o mundo baby
Deixa eu te mostrar o melhor que eu posso ser (2x)

( D9  D9/C  D9/B  D9/Bb )
Ela não é o tipo de mulher que se entrega na primeira
Mas melhora na segunda e o paraíso é na terceira
Ela tem força, ela tem sensibilidade, ela é guerreira
Ela é uma deusa, ela é mulher de verdade
Ela é daquelas que tu gosta na primeira
Se apaixona na segunda e perde a linha na terceira
Ela é discreta e cultua com os livros
E ama os animais, tá ligado eu sou o bicho

( D9 D9/C  D9/B  D9/Bb )
Minha mente nem sempre
tão lúcida é fértil e me deu a voz
Minha mente nem sempre
tão lúcida fez ela se afastar

( D9  D9/C  D9/B  D9/Bb )
Mas ela vai voltar       (2x)


( D9  D9/C  D9/Bb )
|-------------------------------
|------5-5----------------------
|----------5-5---5-----5----5---
|-------------------------------
|------------------7-7---66---88
|-------------------------------


Fazer da vida o que melhor possa ser
Traçar um rumo novo em direção ao sol

D9              D9/C
Me sinto muito bem
          G              Bb C
Quando vejo o pôr-do-sol
                           (D9 D9/C D9/B D9/Bb)
Só pra fazer nascer a lua

( D9  D9/C  D9/B  D9/Bb ) (riff)
Minha mente nem sempre
tão lúcida é fértil e me deu a voz
Minha mente nem sempre
tão lúcida fez ela se afastar (2x)

( D9 )
    Composição: ChorãoColaboração e revisão:
    • Breno Bernardes
    • Rodolfo
    • Cas
    • juhnao
    • +3

    Comentários 74

    140 .
    • Gabriel Gabriel: Em 27/08/2015 - 20:59

      tem que faze a versao completa

    • Matheus Matheus: Em 15/04/2015 23:58

      cara o dedilhado é basicamente a mesma base

    • Vanollo Vanollo: Em 27/02/2015 17:01

      Faz a versão completa!

    • Fabiano Fabiano: Em 19/10/2014 21:27

      legal conseguir na versão do Patrick Blancos valeu ....

    • João Victor João Victor: Em 12/10/2014 01:48

      n to conseguindo fazer a batida... faço ela certinha mas nao consigo abafar... como faço exatamente? x.x agradeço quem me ajudar

      • Flavio Flavio: Em 01/08/2015 13:16

        Eu também cara

    • alanis alanis: Em 22/08/2014 20:05

      BA TRI JA TO MUITO BOAAAAAAAAAAAAAAAAAAA

    • denilson denilson: Em 09/08/2014 10:51

      cara toca ...

    • ZIGGY ZIGGY: Em 18/03/2014 15:32

      estes acordes estão um pouco errado. um ex: em D9/C o certo seria C9, com a corda sol solta. assim para Si e Si bemol.

      • Arthur Arthur: Em 04/04/2014 15:19

        mano mas como c fez batioda ou dedilhado

    Exibindo 10 de 74 comentários Mostrar mais ver todos »
    140 cancelar

    conseguiu tocar?

    • Guilherme
    • Flavio
    • Stephanie
    • Gabriel
    • Felipe
    • lucas.immich1
    • Raquel
    • •••
    0:00 / 0:00

    Capítulos

      Esta versão de cifra não é usada na videoaula. Exiba a cifra correta.
      1 versão de baixo exibições contribuição e correção
      2 versões de Guitar Proformatodownloadscontribuição
      play/pausefechar subir/descer velocidade
      6ª corda E5ª corda A4ª corda D3ª corda G2ª corda B1ª corda E
        acordes
        publicidad
        fechar
        ok