Tom: G
		
Intro

e----------------
B----------------
G----------------(4 VEZES)
D----6-5-3-------
A-5--4-3-1-3-6---
E-3--------1-4---


No refrão é a mesma coisa só que 8 VEZES

Solo(mais ou menos)


e-19-17-16---------------------------------------------------------------------
B----------19-17-16------------------------------------------------------------
G-------------------18-16-14---------------------------------------------------
D----------------------------17p15-17p15---------------------------------------
A----------------------------------------17p15-17p15-------------------15h17---
E----------------------------------------------------16h17-15~~~-15h18---------



e----------------------------
B-------------15h16-18b~~~---
G-------15h17----------------
D-15h17----------------------
A----------------------------
E----------------------------


Depois toca-se 4 VEZES a intro e acaba.

h =slide. Mesmo que escorregar.
b =bend. Técnica em que levanta-se a corda duas casas a frente.
~ =mesmo que o bend(b), só que sem nota p/ ser alcançada.
p =pull of. Técnica em que em vez de se dar uma palhetada 
usa-se o dedo correspondente para tocar essa nota.
Música tocada (1/2)meio tom abaixo.
23.152 exibições

Comentários 0

Composição: Charlie Brown Jr. / John Martyn
Esse não é o compositor? Avise-nos.
Exibir acordes »
publicidade
fechar