Gimme O Anel

Charlie Brown Jr.

 Charlie Brown Jr.
Tom: E
		
 
Intro & Riff 1:

Eu não sei nada ...

    E     D    A    G*
|--------------------------------
|-------------------8------------
|---9----7----------7------------
|---9----7----7-----5------------
|---7----5----7------------------
|-------------5------------------ 


Refrão:

Do you wanna gimme girl ...     

    E     D    A    G
|------------------------------
|------------------------------
|---9----7---------------------
|---9----7----7----5-----------
|---7----5----7----5-----------
|-------------5----3----------- 

( distorção )

Riff 2 ( guitar 1 )

Ela riu de mim ...

    E     D    A    G*
|--------------------------------
|-------------------8------------
|---9----7----------7------------
|---9----7----7-----5------------
|---7----5----7------------------
|-------------5------------------ 


Riff 2 ( guitar 2 )

Ela riu de mim ...

    E     D    A    G
|------------------------------
|------------------------------
|---9----7---------------------
|---9----7----7----5-----------
|---7----5----7----5-----------
|-------------5----3----------- 

( distorção abafada )

( Refrão ) ...

Solo:


|--------------------------------------------------------------------
|------8--12-10--8-----8------------8--12-10-----8-------------------
|--7h9-------------7h9---7------7h9----------7h9---7-----------------
|--------------------------7-5-----------------------7-5h7-5h7-5h7---
|--------------------------------------------------------------------
|--------------------------------------------------------------------


Virada:
Xanas tucon ...
    E*   G    G#   A    C   B    Bb
|-----------------------------------------
|---7-------------------------------------
|---6-------------------------------------
|---7----5----6----7---10---9----8--------
|---7--- 5----6----7---10---9----8--------
|--------3----4----5----8---7----6--------
( ritmo )          ( distorção )

Written by Jefferson Moreira

Comentários 2

  • psyshotter psyshotter: Postado em 27/08/2012 16:01

    Que porra é essa?

    • josue josue: Postado em 03/04/2014 08:39

      é uma musica

Composição: Champignons / Charlie Brown Jr. / John Fortis / John Martyn / T. Weymouth
Esse não é o compositor? Avise-nos.
Contribuição: Markin
Exibir acordes »
publicidade
fechar