Hoje De Noite

Charlie Brown Jr.

 Charlie Brown Jr.
 Hoje de noite deixa a porta...
G---------------------------|
D----4------4----4----4-6---|  Repita isso várias vezes...
A-6-----------6-----6-------|
E-------4-6-----------------|


 Depois daquela noite eu...
G------------------------------------|
D------------------------------------|  Repita isso 2 vezes...
A-6-6-6-6-6-6-6-6--------------------|
E-----------------8-8-8-8-8-8-8-8----|


 Nunca ser tão...
G----------------------------------------------6-----|
D-6-6-6-6-6-6-6-6-------9--8-8-6-6-6-6-6-6-8-9-------|
A-----------------7-7-7--------------------------7---|
E----------------------------------------------------|


 Só baixo e voz...
G---8--------------|
D------------4-----|  Repita isso até entrar a banda...
A-6---6----4-------|
E-------2----------|



_______________________________________________________
Contribuição: Gustavo Panis Barbosa(gubarbosa@globo.com)

Comentários 0

Composição: Charlie Brown Jr
Esse não é o compositor? Avise-nos.
publicidade
fechar