Hoje Eu Acordei Feliz

Charlie Brown Jr.

 Charlie Brown Jr.
Intro e refrao: 

G|----------------------------------------------------------------------------|
D|---------------------0--5-5-555-7-55-4-5---------------0--------------------|
A|--17/-5-5-555-4-55-7--------------------5-5-555-4-55-7----------------------|
E|---------------------------------------------------------3-3-333-5-33-2-3---|


G|-------------------------------------------------------------------------------|
D|--------------------------------------------5-5-555----------------------------|
A|-5-5-555----------------------------5-5-555---------7-7-777--------------------| X2
E|---------3-3-333--0-0-000--5-5-555--------------------------5-5-555------------|

Refrao


Parte que acompanha o solo: 

G|--7-----7------------------------------------|
D|----7-7---7-5-4-5-7--------------------------|
A|--------------------7-7-7--------------------|
E|---------------------------3-3-333-----------|


fINAL: 
G|----------------------------------------|
D|-----------5-5-7-7----------------------|
A|---5-5-7-7---------4/5-------5----------|
E|----------------------------------------|






_______________________________________________________
Contribuição: Diego do Nascimento Pereira(digaopere@bol.com.br)

Comentários 0

publicidade
fechar