Hoje Sou Eu Que Não Mais Te Quero

Charlie Brown Jr.

 Charlie Brown Jr.
Tom: D#
		
Intro:

(Duas vezes abafado)


E|------------------------------------------------------|
B|------------------------------------------------------|
G|------------------------------------------------------|
D|------------------------------------------------------|
A|--------------------------------------11111111--------|
E|---11111111----33333333----44444444-------------------|


(Duas vezes)


E|--------------------------------------------|
B|--------------------------------------------|
G|--5--/--7--/--8--/--10------12-/-8----------|
D|--x--/--x--/--x--/--x-------x--/-x---6------|
A|--3--/--5--/--6--/--8-------10-/-6---x------|
E|-------------------------------------4------|


(Intro)

( Fm  Bb  Cm  Gm )


          Fm
A gente passa o dia junto

A gente fala sobre tudo

Bb
Mas eu sinto você tão longe

     Cm
Você diz sempre que me ama

Mas não age como tal

Gm
Será que amar demais as vezes faz tão mal

      Fm
Eu me pergunto porque as coisas são assim

   Bb
Todo dia eu recomeço muito perto do fim

 Cm                                           Gm
Mas o fato é que fomos, somos e seremos sempre muito fortes

        Fm
A gente corre sempre o tempo todo atrás de um tal de ideal

Bb
 Baseado num formato que talvez não seja o ideal

Cm
 Nem pra você, nem pra mim

Gm
 Nem pra você, nem pra mim
             Fm
Eu olho pra você, eu vejo muito do que eu quero

                  Bb
Mas o mesmo de você, sinceramente, eu já nem mais espero

Cm
 Já nem sei mais se eu quero

Gm
 Nem sei se que

           Fm
Você era meu céu, era meu chão, era meu mundo

           Bb
O nosso sonho era rodarmos juntos o mundo

Cm
 Mas nós nos perdemos pelo mundo

Gm
 Dia após dia, cada um no seu mundo

Fm
 Cada um no seu mundo

Bb
 Mundo esse que era o nosso mundo

Eb                 Bb
 Que era o nosso mundo.

Fm
 Eu olho pra você, eu vejo muito do que eu quero

               Bb
Mas o mesmo de você, sinceramente, eu já nem mais espero

Eb
 Já nem sei mais se eu quero

         Bb
Nem sei se quero

Eb
 Hoje sou eu que não mais te quero

        Bb
Hoje sou eu que não mais te espero

        G#
Hoje sou eu que não mais te quero

          Fm
Hoje sou eu que não mais te espero

( Fm  Bb  Cm  Gm )


E|-----------------------------------------------------------------------------|
B|-----------------------------------------------------------------------------|
G|-----------------------------------------------------------------------------|
D|---------------------------------------------------------13p11--13p11-13p15~-|
A|-10p11p10-8-10---10p11p10-8-10---10p11p13~-----13p11-11----------------------|
E|-----------------------------------------------------------------------------|



E|-----------------------------------------------------------------|
B|-------------16-15--13--15~--------------------------------------|
G|---------15----------------------16-15---------------------------|
D|---15p17--------------------------------17----15--13~------------|
A|-----------------------------------------------------------------|
E|-----------------------------------------------------------------|


         Fm
A gente fala sobre tudo

A gente passa o dia junto
Bb
 Mas eu sinto você tão longe
     Cm
Você diz sempre que me ama

Mas não age como tal
Gm
 Será que amar demais as vezes faz tão mal
       Fm
Eu me pergunto porque as coisas são assim
Bb
Todo dia eu recomeço muito perto do fim
Cm                                                  Gm
Mas o fato é que fomos, somos e seremos sempre muito fortes
  Fm
A gente corre o tempo todo atrás de um tal de ideal
Bb
 Baseado num formato que talvez não seja o ideal
Cm
 Nem pra você, nem pra mim
Gm
 Nem pra você, nem pra mim
         Fm
Eu olho pra você, eu vejo muito do que eu quero
Bb
 Mas o mesmo de você, sinceramente, eu já nem mais espero
Cm
 Já nem sei mais se eu quero
Gm
 Nem sei se quero
Eb
 Hoje sou eu que não mais te quero
Bb
 Hoje sou eu que não mais te espero
G#m
 Hoje sou eu que não mais te quero
Fm
 Hoje sou eu que não mais te espero
Eb
 Hoje sou eu que não mais te quero
Bb
 Hoje sou eu que não mais te espero
G#m
 Hoje sou eu que não mais te quero
Fm
 Hoje sou eu que não mais te espero


E|--------------------------------|
B|-9-9-9--8-8-8--11-11-11--9-9-9--|
G|-x-x-x--x-x-x--x--x--x---x-x-x--|
D|-6-6-6--5-5-5--8--8--8---6-6-6--|
A|--------------------------------|
E|--------------------------------|



E|--------------------|
B|--------------------|
G|----12-/-8----------|
D|----x--/-x---6------|
A|----10-/-6---x------|
E|-------------4------|


G#m
 Hoje sou eu que não mais te quero
Fm
 Hoje sou eu que não mais te espero
G#m
 Hoje sou eu que não mais te quero
Fm
 Hoje sou eu que não mais te espero


E|---------------------------------------|
B|---------------------------------------|
G|--5--/--7--/--8--/--10------12-/-8-----|
D|--x--/--x--/--x--/--x-------x--/-x---6-|
A|--3--/--5--/--6--/--8-------10-/-6---x-|
E|-------------------------------------4-|
Texto Colunas
Alterar tom ½ tom ½ tom
afinação acordes na letra esconder tabs mais »
14.063 exibições

Comentários 8

  • Alef Alef: Postado em 06/06/2014 12:12

    Essa música é simplismente Fodaa

  • Marcos Marcos: Postado em 26/03/2014 14:11

    Video aula pliss \o/\o/

  • João João : Postado em 14/01/2014 23:33

    Por Favor Pessoal Do Cifra Club Faz Uma Vídeo aula pf

  • Italo Italo: Postado em 17/11/2013 18:50

    Eu enviei uma versão que eu peguei ontem de ouvido, espero que eles postem aqui e que vocês gostem, essa música realmente é muito boa. Valeu

  • rafael_zete rafael_zete: Postado em 11/11/2013 19:06

    para de coloca sertanejo e manda essa aquii

  • rafael_zete rafael_zete: Postado em 09/11/2013 11:17

    Iradoooooo faz uma video aula aquiii

  • William William: Postado em 29/10/2013 17:56

    arruma essa cifra ai e se possivel faz uma video aula, pra representar o eterno chorao.. vlww

  • Anderson Anderson: Postado em 20/10/2013 19:53

    Me Emocionou Esta musica Que letra Maravilhosa !
    Um Gênio sempre Deixa Sua Ultima Perola

Composição: Chorão
Esse não é o compositor? Avise-nos.
Contribuição: ander Correções: Ubirajara »
  1. Domingo de Manhã - Marcos e Belutti Manteve-se 99.722 exibições
  2. Logo Eu - Jorge e Mateus Manteve-se 48.143 exibições
  3. Pra Você - Onze:20 Manteve-se 38.583 exibições
  4. Não Vai Voltar - Onze:20 Manteve-se 38.513 exibições
  5. Maus Bocados - Cristiano Araújo Manteve-se 38.375 exibições
  6. Recaídas - Henrique e Juliano Manteve-se 37.455 exibições
  7. Aonde Quer Que Eu Vá - Os Paralamas do Sucesso Manteve-se 34.691 exibições
  8. É Preciso Saber Viver - Titãs Manteve-se 34.197 exibições
  9. Só Os Loucos Sabem - Charlie Brown Jr. Manteve-se 32.562 exibições
  10. Pais e Filhos - Legião Urbana Manteve-se 30.658 exibições
  1. Jorge e Mateus- Manteve-se 284.659 exibições
  2. Legião Urbana- Manteve-se 217.499 exibições
  3. Charlie Brown Jr.- Manteve-se 156.516 exibições
  4. Fernandinho- Manteve-se 125.340 exibições
  5. Marcos e Belutti- Manteve-se 123.090 exibições
  6. Henrique e Juliano- Manteve-se 117.978 exibições
  7. Bruno e Marrone- Manteve-se 108.321 exibições
  8. Onze:20- Manteve-se 100.000 exibições
  9. Victor e Leo- Manteve-se 96.086 exibições
  10. Thalles Roberto- Manteve-se 94.141 exibições
Exibir acordes »

Cifras e tabs

Fórum Cifra Club

Aprenda

Cifra Club News

Mais Serviços Cifra Club ID

Studio Sol

©1996 - 2014 Cifra Club · o primeiro, maior e mais acessado do Brasil · 336 mil músicas · 6.2 milhões pessoas cadastradas

publicidade
fechar