Indicados para o Prêmio Nobel da Paz

Charlie Brown Jr.

 Charlie Brown Jr.
Tom: E
		
Atenção: a corda Mi mais grave deve ser afinada meio tom abaixo,
  que é melhor do que afinar a guitarra inteira meio tom abaixo.


Riff 1

E|---------------------------------------------------------------
B|---------------------------------------------------------------
G|----------------------6------------------------6--8------------
D|---1--4--6/76--4--1--6-----1--4--6/76--4--1--6--8------------
A|---1--4--6/76--4--1--------1--4--6/76--4--1---------61------
E|-0------------------------0---------------------------0--------



Aqui quem menos corre, voa
Aqui não tem marcha lenta
Aqui só tem cientista
O que não existe, nóis inventa!
Zica tem de monte, zóião dá até em penca
Eu tomo banho de banheira
Com champagne e água-benta

Riff 1

E|---------------------------------------------------------------
B|---------------------------------------------------------------
G|----------------------6------------------------6--8------------
D|---1--4--6/76--4--1--6-----1--4--6/76--4--1--6--8------------
A|---1--4--6/76--4--1--------1--4--6/76--4--1------------------
E|-0------------------------0------------------------------------

 


O homem de moral faz pelo dom pelo dinheiro
Para assegurar seu bem estar moral e financeiro
O homem imoral trabalha o mês inteiro e revoltado
Com o que ganha extermina seu salário num puteiro

Eu não preciso jogar praga em você
Você já nasceu uma pessoa estúpida
Eu não preciso jogar praga em você
Você já nasceu essa pessoa estúpida
(Aí tem tipo um sambinha no fundo, esse dexa pra lá)
Muitas drogas vão te oferecer
E as suas respostas vão dizer quem é você
O mundo livre vai te condenar

Cuidado com os indicados para o Prêmio Nobel da Paz!
(No último riff da música o ritmo diminui uma cara aí termina assim...)


Riff 1

E|---------------------------------------------------------------
B|---------------------------------------------------------------
G|---------------------------------------------------------------
D|---1--4--6/7-6--4--1-------------------------------------------
A|---1--4--6/7-6--4--1--4--6-------------------------------------
E|-0--------------------5--7-------------------------------------
18.546 exibições

Comentários 0

Composição: Guilermo Pelado
Esse não é o compositor? Avise-nos.
Exibir acordes »
publicidade
fechar