Malokero SK8 Board

Charlie Brown Jr.

 Charlie Brown Jr.
Tom: B
		
/ guitarra afinada meio-tom abaixo \
 


  Intro

eb|--------------------------------------|
Bb|--------------------------------------| 
Gb|--------------------------------------| Repeat
Db|--------------------------------------|  2x
Ab|--------------------------------------|
Eb|-3-000000-3-000000-3-000000-3-000000--|


  Riff 1

eb|---------------------------------|--------------------------------------|
Bb|---------------------------------|--------------------------------------|
Gb|---------------------------------|--------------------------------------|
Db|---------------------------------|--------------------------------------|
Ab|-------------------8/9-9987555---|--------------------------------------|
Eb|-3-000000-3-000000-6/7-7765333---|-5-333333-5-333333-5-333333-5-333333--|


   
Fomos reprimidos, fomos enganados, Somos os seus erros, estamos revoltados

Somos piores do que dizem que somos, Somos loucos, insaciàveis    

Somos feios pra caralho, Mas não vivemos de aparência, Podemos subornar nossa própria consciência
        
Palyboy, Você tem quase tudo, mas não tem moral, Maloqueiro é maloqueiro, paga-pau é paga-pau!
                       
                   
  Riff 2

eb|---------------------------------|
Bb|---------------------------------|  Repeat 
Gb|---------------------------------|    4x
Db|---------------------------------|
Ab|-8-7-8-7-8-7--5--5-5---5-5-5-----|
Eb|-6-5-6-5-6-5--3--3-3-0-3-3-3-----|




eb|--------------------------------------|
Bb|--------------------------------------| 
Gb|--------------------------------------| Repeat
Db|--------------------------------------|  2x
Ab|--------------------------------------|
Eb|-3-000000-3-000000-3-000000-3-000000--|



  Riff 1

eb|---------------------------------|--------------------------------------|
Bb|---------------------------------|--------------------------------------|
Gb|---------------------------------|--------------------------------------|
Db|---------------------------------|--------------------------------------|
Ab|-------------------8/9-9987555---|--------------------------------------|
Eb|-3-000000-3-000000-6/7-7765333---|-5-333333-5-333333-5-333333-5-333333--|



Fomos reprimidos, fomos enganados, Somos os seus erros, estamos revoltados

Somos piores do que dizem que somos, Somos loucos, insaciàveis
    
Somos feios pra caralho, Mas não vivemos de aparência, Podemos subornar nossa própria consciência
        
Palyboy, Você tem quase tudo, mas não tem moral, Maloqueiro é maloqueiro, paga-pau é paga-pau!
 

  Riff 2                   

eb|---------------------------------|
Bb|---------------------------------|  Repeat 
Gb|---------------------------------|    4x
Db|---------------------------------|
Ab|-8-7-8-7-8-7--5--5-5---5-5-5-----|
Eb|-6-5-6-5-6-5--3--3-3-0-3-3-3-----|



Palyboy, Você tem quase tudo, mas não tem moral
Maloqueiro é maloqueiro, paga-pau é paga-pau! 

Palyboy, Você tem quase tudo, mas não tem moral
Maloqueiro é maloqueiro, paga-pau é paga-pau! 


  Riff 3
    . .   . .   .   . .   .           . .   . .   .   .

eb|---------------------------------|--------------------------------------|
Bb|---------------------------------|--------------------------------------| 
Gb|---------------------------------|--------------------------------------|  Repeat
Db|-----9-----9---7-----5---5/7-7---|-----9-----9---7----------------------|   4x
Ab|-----7-----7---5-----3---3/5-5---|-----7-----7---5---5-5-5-5-5-5-5------|
Eb|-0-0---0-0---0---0-0---0---------|-0-0---0-0---0---0-3-3-3-3-3-3-3------|

    Solo: Base /E5  /G5  /A5 
   
    E5            G5         A5                                        

eb|-------------------------------1517151715--------1715171517--------|
Bb|-15b15-15-15b15-------15~~-1517----------17151715-----------15b15--|
Gb|---------------14~~~~~---------------------------------------------|
Db|-------------------------------------------------------------------|
Ab|-------------------------------------------------------------------|
Eb|-------------------------------------------------------------------|


    E5            G5         A5

eb|-------------------------------------------------------------------|
Bb|-15b15-------------------------------------------------------------|
Gb|------------14-12~~~~~~~~---------------121412141214~~~~-----------|
Db|------------------------------------1214---------------------------|
Ab|------------------------------121314-------------------------------|
Eb|--------------------------1215-------------------------------------|


    E5                      G5              A5

eb|-19191917----18181817----17------17b17\----------121212151515191919|
Bb|---------2017--------2017--201715--------14141414------------------|
Gb|-------------------------------------------------------------------|
Db|-------------------------------------------------------------------|
Ab|-------------------------------------------------------------------|
Eb|-------------------------------------------------------------------|

    E5          G5           A5

eb|-22b22-22-18-19~~~~-------17171515--------17171515-----------------|
Bb|----------------------------------17171515--------17171515---------|
Gb|-------------------161616---------------------------------14b14h12-|
Db|-------------------------------------------------------------------|
Ab|-------------------------------------------------------------------|
Eb|-------------------------------------------------------------------|


    G5 E5/E5/E5/E5/E5 G5/E5/E5/E5/E5/E5 G5

eb|------------~15\-------------15~~~~~~--|
Bb|---------------------------------------|
Gb|---------------------------------------|   End
Db|-14~~~~--------------------------------|    
Ab|---------------------------------------|
Eb|---------------------------------------|


____________________________________________________________



.  - palm mute  
/  - slide up to
\  - slide down to  
~  - vibrato
25.054 exibições

Comentários 2

  • Ricardinho Ricardinho: Postado em 12/01/2014 16:53

    solo do mal

  • greg_smo greg_smo: Postado em 23/02/2013 20:27

    esse video q ta ae nem é da musica certa seloko

Composição: Guilermo Pelado
Esse não é o compositor? Avise-nos.
Contribuição: Faro Fino
Exibir acordes »
publicidade
fechar