O Futuro É Um Labirinto Pra Quem Não Sabe o Que Quer

Charlie Brown Jr.

 Charlie Brown Jr. Compositor: Chorão/Heitor Vilela/Thiago Castanho
Se preferir afine as cordas em: Gb, Db, Ab, Eb.

Intro e Verso:
G-----14----14----14----14-14-|
D-------0h12--------0h12---12-|   (2X)
A-0h12--------0h12------------|
E-----------------------------|
  (T) (P)(T)(P)(T)(P)(T)(P)(P)

G-----15----15----15----15-15------12----12----12----12-12-|
D-------0h13--------0h13---13--------0h10--------0h10---10-|
A-0h13--------0h13-------------0h10--------0h10------------|
E----------------------------------------------------------|
  (T) (P)(T)(P)(T)(P)(T)(P)(P)  (T)(P)(T)(P)(T)(P)(T)(P)(P)


Refrão:
G-----9-----9--9h10----10-7-----------------12~---10~---7-------------|
D---7--7---7-7-------8-----8---5---10-----7-----7-----8--8----5---10--|
A-5------5---------6--------6-3-3-8--8--5-----5-----6-----60-3-3-8--8-|
E---------------------------------------------------------------------|

Verso
Refrão (2)

Interlúdio:
G--------------------------------------|
D--------------------------------------|
A-5/12--555555--555555--666666--333333-|   (3X)
E--------------------------------------|

Refrão

Termina em:
G-------|
D---7---|
A-5---5-|
E-------|

Comentários 1

  • limaobass limaobass: Postado em 12/09/2012 20:49

    cifra excelente, parabens!

Composição: David Poggiolini / Heitor TP / Justin Smith
Esse não é o compositor? Avise-nos.
Contribuição: Biel
publicidade
fechar