Onde Está o Mundo Bom?

Charlie Brown Jr.

 Charlie Brown Jr.
Tom: D
Afinação: Eb Ab Db Gb Bb Eb
		

       B5           D5                G5           E5
E|------------------------------------------------------------
B|------------------------------------------------------------
G|------------------------------------------------------------
D|--9--9--9-9-9--12--12--12-12-12--5--5--5-5-5--2--2--2-2-2---
A|--9--9--9-9-9--12--12--12-12-12--5--5--5-5-5--2--2--2-2-2---
E|--7--7--7-7-7--10--10--10-10-10--3--3--3-3-3--0--0--0-0-0---


Riff da Intro:


E|--0-0-0--0--0---------------------------------------------------
B|--7-7-10-10-10-7-7-7s12s10~-------------------------------------
G|----------------------------------------------------------------
D|----------------------------5--5--5-5-5--2--2--2-2-2------------
A|----------------------------5--5--5-5-5--2--2--2-2-2------------
E|----------------------------3--3--3-3-3--0--0--0-0-0------------


B5         D5            G5
 A miséria oprime à todos nós
              E5                 B5
 De quem é a culpa eles nunca falam
    D5           G5         E5
 O caos virou normal urna e na TV
B5          D5            G5         E5
 Já nem me lembro quantos incidentes tristes passei
B5                D5         G5      E5
 Quantos sonhos o mundo já levou de você?

Refrão:
B5            D5       G5           E5
  Onde está o mundo bom que prometeram a você?
B5            D5         G5      E5  (Riff 2)
  Será que a vida é como deveria ser?
B5            D5       G5           E5
  Onde está o mundo bom que prometeram a você?
B5            D5         G5      E5
  Será que a vida é como deveria ser?

Riff 2:

E|--10-9---
B|--8--7---
G|---------
D|---------
A|---------
E|---------


(Intro)

B5         D5         G5        E5
 Somos forçados a condutas e clichês
B5          D5            G5         E5
 Que a sociedade aprove e possa entender
B5          D5             G5        E5
 Eles te controlam mas não podem ajudar você
B5              D5             G5            E5
 Quando eu precisar quem é que vai olhar por mim?

Refrão:
B5            D5       G5           E5
  Onde está o mundo bom que prometeram a você?
B5            D5         G5      E5  (Riff 2)
  Será que a vida é como deveria ser?
B5            D5       G5           E5
  Onde está o mundo bom que prometeram a você?
B5            D5         G5      E5
  Será que a vida é como deveria ser?

(Intro)

B5          D5
  Maybe one day
G5                  E5
  I'm gonna live in L.A.
B5          D5
  Maybe one da__y
G5                  E5
  I'm gonna live in L.A.

B5           D5
 Wanna be no superstar
            G5            E5
But I wanna drive all the nice cars
17.792 exibições

Comentários 1

  • josue josue: Postado em 01/04/2014 11:38

    isso e charlie brown jr poooorrrraaaa

Composição: Sabe quem é o compositor? Envie pra gente. Contribuição: MNPacheco Correções: tcvei , daniellinhares7 e mais 2 »
Exibir acordes »
publicidade
fechar