Proibida Pra Mim (grazon)

Charlie Brown Jr.

 Charlie Brown Jr.
Riff 1: Introdução.

G|-------------------------|
D|-------------------------|  (  2x  )
A|--------3-3-1-1-1--------|
E|-1-1-1-1---------4-------|

Riff 2 : 2ª parte da introdução (antes de cantar). Tocar mais rápido.

G|-------------------------|
D|-------------------------|  (  2x  )
A|--------3-3-1------------|
E|-1-1-1-1-----4-----------|

Riff 3: Estrofe 

G|-----------------------------------------------|
D|-----------------------------5-6-5-6-----------|    (   4x   )
A|-6-6-6-6-7-0-1-1-1-1/3-3-3-3---------6---------|
E|-----------------------------------------------|

Riff 4: Refrão

G|-----------------------------------------------|
D|-----------------------------------------------|
A|-6-6-6-6-6-----------3-3-3-3-3-----------------|
E|-----------6-6-6-6-6-----------4-4-4-4-4-4-----|

Volta ao Riff 2 até o Riff 4 e fim ( termina com Eb).

JPBASS - jpbadboy@bol.com.br

Comentários 0

Composição: Charlie Brown Jr. / John Martyn
Esse não é o compositor? Avise-nos.
Contribuição: jpbass
publicidade
fechar