Puxa Carro

Charlie Brown Jr.

 Charlie Brown Jr.
Tom: C
		
Intro

e---------------
B---------------
G---------------
D---------------
A-----*-----5---
E-0h10--5h7-----


Refrão

e-----------
B-----------
G-----------(4 VEZES)
D-----------
A-5-5-7-7---
E-3-3-5-5---


Estou trabalhando no solo. Logo que puder mandarei.
    *
0h10  =não é bem um slide, mas escorregue bem rápido 
as notas e não deixe muito nítido, pois na música
o baixo acompanha, então dá o som de slide.
h =slide. Mesmo que escorregar.
13.156 exibições

Comentários 0

Composição: Charlie Brown Jr
Esse não é o compositor? Avise-nos.
Exibir acordes »
publicidade
fechar