Charlie Brown Jr.

Quinta-Feira

356.685 exibições
Tom: C
Intro: G  C  F  C
       G  C  F  C

Riff:

E|--------------------------------------|
B|-------------------------------|---------------------------|
G|-------------------------------|---------------------------|
D|--------5-3-2----------2-3/5---|--------3-2-0--------2-3/5-|
A|---------------3-3---3--3------|--------------3-3--3--3----|
E|--3-3--3-----------------------|-1-1--1--------------------|


E|------------------------------------0-|
B|-------------------------0-------------1---1---------------|
G|--------0--------------0---0---0-----2---------------------|
D|------0---0---0------2-------2-----3-----------------------|
A|----2-------2------3----------------------------3-3-3- 5---|
E|--3--------------------------------------------------------|



          Em7                            D
Ainda me lembro bem daquela quinta-feira
         Em7                              D
Cinco malandro em volta da fogueira, Fogueira, yeah!

          Em7                                    D
Ouvi o grito de dor de um homem que falava a verdade mas ninguém se importava (2x)
           Em7                                                   D
Botando pra fora tudo que sentiu na pele mas ninguém lhe dava ouvidos não

          G                         C
Deixou a marca da fogueira que acendeu pra se (2x)
                    F  C
Livrar do frio que mata
           G
Miséria impune, notável,
    C              F         C
Sincera não acaba nunca, yeah!

     G                  C              F               C
Parecia inofensiva mas te dominou, te dominou, te dominou, dominou  (2x)
   G                    C              F                C
Parecia inofensiva mas te dominou, te dominou, te dominou, dominou

Oh!

(Riff)

Solo: G  C  F  C

       Em7
 O difícil é desviar de quem tá sempre querendo
           D
 Ela mantém a porta aberta ela te faz de instrumento,
        Em7                               D
 Vai te dominar, se já não dominou, yeah!
        Em7                                      D
 Ouvi o grito de dor de um homem que falava a verdade mas ninguém se importava
             Em7                                                D
 Botando pra fora tudo o que sentiu na pele ninguém lhe dava ouvidos não

         G                         C
Deixou a marca da fogueira que acendeu pra se
                   F    C
Livrar do frio que mata
          G
Miséria impune, notável,
   C                 F         C
Sincera não acaba nunca, yeah!

   G                   C               F                C
Parecia inofensiva mas te dominou, te dominou, te dominou, dominou
    G                     C               F              C
Parecia inofensiva mas te dominou, te dominou, te dominou, dominou

Oh!

(Riff)

Solo: G  C  F  C


E|-------------------------------------------------------------------------|
B|-------------------------------------------------------------------------|
G|--5/7-------------------------2-0---0--------0-2-4-2-0-----6/4-----------|
D|------10--9h10--9--5----2h3-5-----3------2h3---------------7/5--3h5-3----|
A|----------------------------------------------------------------------5--|
E|-------------------------------------------------------------------------|


E|--6h7-6-4------------------------------------12/13-12/13-12/13-12/13--12^-10-12-----|
B|----------6-5-3------------6-5-3------------------------------------------------11~~|
G|----------------6-5-3---5--------5-3---3-----14/15-14/15-14/15-14/15----------------|
D|----------------------5--------------5----------------------------------------------|
A|------------------------------------------------------------------------------------|
E|------------------------------------------------------------------------------------|



    G                     C               F              C
Parecia inofensiva mas te dominou, te dominou, te dominou, dominou
     G                     C               F                C
Parecia inofensiva mas te dominou, te dominou, te dominou, dominou
    Composição: Charlie Brown Jr.Colaboração e revisão:
    • Breno Bernardes
    • Ícaro
    • Rick
    • brunoalfredo
    • +2

    Comentários 14

    • gustavo gustavo: Postado em 17/06/2015 19:05

      a música é em bemol

    • roney roney: Postado em 19/02/2015 20:07

      musica facil não precisa nem de video aula

    • felipe.sousa.1272 felipe.sousa.1272: Postado em 22/05/2014 20:16

      mol facil essa musica ,

    • leni.araujo.961 leni.araujo.961: Postado em 03/03/2014 20:59

      chorao era o cara

    • camila jordana camila jordana: Postado em 11/02/2014 16:45

      fico show aprendi rapidinho uahusuhaus

    • kiufreires kiufreires: Postado em 01/01/2014 15:56

      muito bom a cifra

    • DAVID DAVID: Postado em 31/10/2013 21:00

      ai galera do cifra por favor criem uma video aula dessa musica ai para a familia charlie brown valeu!!!

    • Anderson Anderson: Postado em 14/05/2013 01:37

      a afinação é em Eb, a cifra tá certa

    • Tavim Tavim: Postado em 08/05/2013 20:07

      Voces que nao manjam mesmo o tom ta certinho e toquei de boa aqui

    • Leonardo Leonardo: Postado em 29/03/2013 00:47

      Aí, troca o D por Gm la na decima casa da quinta corda

    Exibindo 10 de 14 comentários Mostrar mais ver todos »
    0:00 / 0:00

    Capítulos

      1 versão de baixoexibiçõescontribuição e correção
      play/pausefechar subir/descer velocidade
      6ª corda E5ª corda A4ª corda D3ª corda G2ª corda B1ª corda E
        acordes
        publicidad
        fechar
        ok