Tom: A
		
 Riff 1 (c/ phaser)
    

eb|-9--9---9-12-12/14-|
Bb|-10-10--9-12-12/14-|
Gb|-9--9---9-12-12/14-|
Db|-11-11-------------|
Ab|-9--9--------------|
Eb|-------------------|



(c/wha)

eb|------------------------------------------|
Bb|------------------------------------------|
Gb|-12\-7-10-7----7-----[4x]----12---11----10|
Db|------------10---7---------12---11---10---|
Ab|-------------------9----------------------|
Eb|------------------------------------------|


c/wha)

eb|------------------------------------------|
Bb|------------------------------------------|
Gb|-12\-7-10-7----7------------------9-------|
Db|------------10---7---7---9---11-----------|
Ab|-------------------9---9---9----9---------|
Eb|------------------------------------------|



eb|-------------|
Bb|-------------|
Gb|-------------|
Db|-4-3-2-4/5-2-|
Ab|-4-3-2-4/5-2-|
Eb|-2-1-0-2/3-0-|


solo

eb|---------------------------------------------------------|
Bb|---------------------------------------------------------|
Gb|-16br---14----------14----16br----14---------------------|
Db|-----16----16p14h16------------16----16p14h16-14---------|
Ab|-------------------------------------------------16-15-14|
Eb|---------------------------------------------------------|




eb|--------------------------------------------------|
Bb|--------------------------------------------------|
Gb|-16br----16b---------14----16br----14-------16brbr|
Db|------16----16p14h16------------16----16p14-------|
Ab|--------------------------------------------------|
Eb|--------------------------------------------------|


Ainda tp pegando o resto do solo XD

-=[Tradução]=-

 x = Não toca nada
 ~ = Arraste (Da corda 4 pra 8)
---- = Distância Maior em Relação as outras

Riff 1
Eu sou o Sheik tenho mais de mil mulheres no meu harém
minha barraca ta armada e não tem pra ninguém
com meu petróleo tua máquina funciona bem
vou te comprar pro meu harém

Porque eu só moro em cobertura, só ando em limusine
um milhão no porta mala cinco mina de biquini
eu sou o Sheik, Sheik, Sheik
vou te comprar pro meu harém

Poligamia casei com tua irmã
com tua prima e tua tia!
Você no meu lugar não vai dizer que não faria ?
Tudo traz a lembrança da lenda da fenda
fica induzindo ele rumar pra lá
estúpido ele fica, assim ela é linda
Ela vem, ela abala, ela é má
Xexecar o que ela tem pra me entreter
é mais ou menos parecido com a mulher do Canadá

G#m     Fm
Sheik, Sheik
G#m            F#m
Sheik, Sheik, Sheik!
G#m     Fm
Sheik, Sheik
G#m            F#m
Sheik, Sheik, Sheik!

  G#m    F#m
e|-x-| e|-x-|
B|-x-| B|-x-|
G|-x-| G|-x-|
D|-4-| D|-1-|
A|-6-| A|-3-|
E|-4-| E|-1-|

57.403 exibições

Comentários 0

Composição: Charlie Brown Jr. / John Martyn
Esse não é o compositor? Avise-nos.
Contribuição: thiago
Exibir acordes »
publicidade
fechar