[introdução]
G-|--------------8---------|------------ ------------------------------------------|
D-|--------8h10----10-8---|------10---8---6-----10---8---6-----10---8---6--------|
A-|-18/10---------------10-|-8-8----6---6---8-8----6---6---8-8----6---6---8-7-6/-|
E-|-----------------------|---------------------------------------------------------|

[versos]								("Ah Yeah!...")
G-|-------------------------------------------------------------|	|------------|
D-|-----10---8---6-----10---8---6-----10---8---6--------------|	        |------------|
A-|-8-8----6---6---8-8----6---6---8-8----6---6---8-8--8-7-6/-|	        |-8/6--10/6-|
E-|-------------------------------------------------------------|	|------------|

[refrão]								("Aaah Yeaah...")
G-|--------------------------------------------| 			|------------|
D-|--------------------------------------------|			|------------|
A-|-8-7-6-10-10--8-7-6--8-7-6-10-10--8-7-6/-|			        |-8/6--10/6-|
E-|--------------------------------------------|			|------------|

[solo = versos]


x - nota muda!
/ ou \= slide p/cima ou p/baixo
h= hammer on - martelar a corda com o dedo direito ou esquerdo
p - soltar a corda
b - empurrar a corda p/cima ou p/baixo
p.m - tocar abafado
~ - vibrato, deixe a corda vibrar através de uma alavanca ou empurrando com o dedo


_______________________________________________________
9.978 exibições

Comentários 0

Composição: Charlie Brown Jr. / John Martyn
Esse não é o compositor? Avise-nos.
Contribuição: eduardo
Consegui tocarAinda não conseguiram tocar essa música. Seja o primeiro!
    Não consegui tocar
    publicidade
    fechar