Só Lazer

Charlie Brown Jr.

 Charlie Brown Jr.
Intro: ( Eb  B  C#  Bbm )  
       ( Eb  B  C#  F# ) 

Riff 1:
Gb|----------------------------------|
Db|--222222222--------00000----------|
Ab|------------33333---------222222--|
Eb|----------------------------------|

Refrão:
Gb|----------------------------------|
Db|--22222222------------------------|
Ab|------------2222222---333333------|
Eb|----------------------------------|

Solo do Baixo 2x: 
Gb|----9-7-9h11--9-7-9-7-------------7-----------|
Db|----------------------7h9-9-7h9-9---9-7h9-----|
Ab|--7-------------------------------------------|
Eb|----------------------------------------------|

Gb|----9-7-------7-----------------------7-----------|
Db|--------9-7-9---9---------7h9-9-7h9-9---9-7h9-----|
Ab|--7-----------------------------------------------|
Eb|--------------------------------------------------|

_______________________________________________________

Comentários 0

Composição: Champignons / John Fortis / T. Weymouth
Esse não é o compositor? Avise-nos.
Contribuição: m.fabth
Consegui tocarAinda não conseguiram tocar essa música. Seja o primeiro!
    Não consegui tocar
    publicidade
    fechar