Só Por Uma Noite

Charlie Brown Jr.

 Charlie Brown Jr.
Tom: F
		
Introducao: BPM:142
Marcao:

D#|---------------------------------------------|
A#|---------------------------------------------|
F#|-----------0----------0----------------------|
C#|-------3-------------------------------------|
G#|--3h5----5-------3--3--------3----3--3-3-3-3-|
D#|--------------1----------3h5---5-------------|



D#|-------------------------------------------------|
A#|-------------------------------------------------|
F#|-----------0----------0--------------------------|
C#|-------3---------------------------------5-5-5-5-|
G#|--3h5----5-------3--3--------3----3------3-3-3-3-|
D#|--------------1----------3h5---5-----------------|


Marcao e Tadeu juntos:
Tadeu: 4x (na quarta vez segura a ultima nota abafando)

D#|---------------------------------------------|
A#|---------------------------------------------|
F#|---------------------------------------------|
C#|--5/7-7-7-7---3--3-3-x---7-7--x---5--5-5-----|
G#|--3/5-5-5-5---3--3-3-x---7-7--x---3--3-3-----|
D#|--------------1--1-1-x---5-5--x--------------|


Marcao:

D#|--------------------------------------------------|
A#|--------------------------------------------------|
F#|--9/10-10-10-10---5--5-5----14/17-15-14-12/14-10--|
C#|--------------------------------------------------|
G#|--7/-8--8--8--8---3--3-3----12/15-13-12-10/12--8--|
D#|--------------------------------------------------|



D#|----------------------------------------8--------|-------8-------|
A#|------------------------------------6-----6-5-6--|---6-----6-5-6-|
F#|--9/10-10-10-10/9-9/12--10--9---3/5---5----------|-5---5---------|
C#|-------------------------------------------------|---(2 vezes)---|
G#|--7/-8--8-8---8/7-7/10---8--7------------------------------------|
D#|-----------------------------------------------------------------|



D#|-------13----12----13--------------8---8-8-8-8-8-----|
A#|--6/13----13----13----13------6----8---8-8-8-8-8-----|
F#|--------------------------3/5---5--5---5-5-5-5-5-----|
C#|-----------------------------------------------------|
G#|-----------------------------------------------------|
D#|-----------------------------------------------------|


Tadeu:

D#|---------------------------------------|
A#|---------------------------------------|
F#|---------------------------------------|
C#|--7-7-x--8--8-8-x---3--x-3--3-3--------|
G#|--7-7-x--8--8-8-x---3--x-3--3-3--------|
D#|--5-5-x--6--6-6-x---1--x-1--1-1--------|


Marcao: (repete 2x)

D#|---------------------------------------|
A#|------------------------------6--6-6-6-|
F#|--12/14--12--10-9-9/10-5-5--x-5--5-5-5-|
C#|----------------------------x----------|
G#|--10/12--10---8-7-7/-8-3-3--x-3--3-3-3-|
D#|---------------------------------------|


Verso: (na quarta vez segura a ultima nota abafando-a)

D#|---------------------------------------|
A#|---------------------------------------|
F#|---------------------------------------|
C#|--7-7-x--8--8-8-x---3--x-3--3-3--------|
G#|--7-7-x--8--8-8-x---3--x-3--3-3--------|
D#|--5-5-x--6--6-6-x---1--x-1--1-1--------|



Eu procurei em outros corpos encontrar você
Eu procurei um bom motivo pra não falar
Eu procurei me manter afastado, mas você me conhece
Eu faço tudo errado
Tudo errado

Abafado: verso (mesma notas)
Fim de semana, eu sei lá
Vou viajar, vou me embalar
Vou dar uma festa, vou tocar um puteiro
Eu vou te esquecer nem que for

Aberto: verso (mesma notas)
Só por uma noite
Só por uma noite
Só por uma noite
Só por uma noite

Refrao:

D#|------------------------|----------------------|
A#|-------(2 vezes)--------|------(2 vezes)-------|
F#|------------------------|----------------------|
C#|--5/7-7-7-7---3--3-3-x--|--7-7--x---5--5-5-----|
G#|--3/5-5-5-5---3--3-3-x--|--7-7--x---3--3-3-----|
D#|--------------1--1-1-x--|--5-5--x--------------|


Mas só de ouvir a sua voz já me sinto bem
Mas se é difícil pra você, tudo bem
Muita gente se diverte com o que tem
Só de ouvir a sua voz já me sinto bem
Mas se é difícil pra você tudo bem
Quando a gente se diverte com o que tem


Verso: notas Am Bb F
Se diverte com o que tem
Só por uma noite

Marcao e Tadeu juntos:
Tadeu: 4x (na quarta vez segura a ultima nota abafando)

D#|---------------------------------------------|
A#|---------------------------------------------|
F#|---------------------------------------------|
C#|--5/7-7-7-7---3--3-3-x---7-7--x---5--5-5-----|
G#|--3/5-5-5-5---3--3-3-x---7-7--x---3--3-3-----|
D#|--------------1--1-1-x---5-5--x--------------|


Marcao:

D#|--------------------------------------------------|
A#|--------------------------------------------------|
F#|--9/10-10-10-10---5--5-5----14/17-15-14-12/14-10--|
C#|--------------------------------------------------|
G#|--7/-8--8--8--8---3--3-3----12/15-13-12-10/12--8--|
D#|--------------------------------------------------|



D#|----------------------------------------8--------|-------8-------|
A#|------------------------------------6-----6-5-6--|---6-----6-5-6-|
F#|--9/10-10-10-10/9-9/12--10--9---3/5---5----------|-5---5---------|
C#|-------------------------------------------------|---(2 vezes)---|
G#|--7/-8--8-8---8/7-7/10---8--7------------------------------------|
D#|-----------------------------------------------------------------|



D#|-------13----12----13--------------8---8-8-8-8-8-----|
A#|--6/13----13----13----13------6----8---8-8-8-8-8-----|
F#|--------------------------3/5---5--5---5-5-5-5-5-----|
C#|-----------------------------------------------------|
G#|-----------------------------------------------------|
D#|-----------------------------------------------------|


Tadeu:

D#|---------------------------------------|
A#|---------------------------------------|
F#|---------------------------------------|
C#|--7-7-x--8--8-8-x---3--x-3--3-3--------|
G#|--7-7-x--8--8-8-x---3--x-3--3-3--------|
D#|--5-5-x--6--6-6-x---1--x-1--1-1--------|


Marcao: (repete 2x)

D#|---------------------------------------|
A#|------------------------------6--6-6-6-|
F#|--12/14--12--10-9-9/10-5-5--x-5--5-5-5-|
C#|----------------------------x----------|
G#|--10/12--10---8-7-7/-8-3-3--x-3--3-3-3-|
D#|---------------------------------------|


Verso: (na quarta vez segura a ultima nota abafando-a)

D#|---------------------------------------|
A#|---------------------------------------|
F#|---------------------------------------|
C#|--7-7-x--8--8-8-x---3--x-3--3-3--------|
G#|--7-7-x--8--8-8-x---3--x-3--3-3--------|
D#|--5-5-x--6--6-6-x---1--x-1--1-1--------|


Eu procurei abrir os olhos, enxergar você
Eu procurei um bom motivo pra não estar lá
Eu procurei me manter afastado, mas você me conhece
Eu faço tudo errado
Tudo errado

Abafado: verso (mesma notas)
Fim de semana, eu sei lá
Vou viajar, vou me embalar
Vou dar uma festa, vou tocar um puteiro
Eu vou te esquecer nem que for

Aberto: verso (mesma notas)
Só por uma noite
Só por uma noite
Só por uma noite
Só por uma noite

Refrao:

D#|------------------------|----------------------|
A#|-------(2 vezes)--------|------(2 vezes)-------|
F#|------------------------|----------------------|
C#|--5/7-7-7-7---3--3-3-x--|--7-7--x---5--5-5-----|
G#|--3/5-5-5-5---3--3-3-x--|--7-7--x---3--3-3-----|
D#|--------------1--1-1-x--|--5-5--x--------------|


Mas só de ouvir a sua voz já me sinto bem
Mas se é difícil pra você, tudo bem
Muita gente se diverte com o que tem
Só de ouvir a sua voz já me sinto bem
Mas se é difícil pra você tudo bem
Quando a gente se diverte com o que tem

Final:

D#|---------------------------------------------|
A#|---------------------------------------------|
F#|---------------------------------------------|
C#|--5/7-7-7-7---3--3-3-x---7-7--x---5--5-5-----|
G#|--3/5-5-5-5---3--3-3-x---7-7--x---3--3-3-----|
D#|--------------1--1-1-x---5-5--x--------------|


Marcao:

D#|---------------------------------------------------------------------|
A#|--10-10-10-10--xx-10------------------------10-10-10-10---13--13-----|
F#|--10-10-10-10--12-10-9--10/12-10-9-9-9/10---10-10-10-10---12^-12-10~~|
C#|---------------------------------------------------------------------|
G#|--------------------------8/10--8-7-7-7/8----------------------------|
D#|---------------------------------------------------------------------|



D#|---------------------|-------8-------|-----13---12---13--------------8-|
A#|--------6---5-6------|---6-----6-5-6-|-6/13--13---13---12-------6----8-|
F#|----3/5---5-----5----|-5---5---------|----------------------3/5---5--5-|
C#|---------------------|---(2 vezes)---|---------------------------------|
G#|---------------------|---------------|---------------------------------|
D#|---------------------|---------------|---------------------------------|

Comentários 0

Composição: Champignons / John Fortis / T. Weymouth
Esse não é o compositor? Avise-nos.
Exibir acordes »
publicidade
fechar