Só Por Uma Noite

Charlie Brown Jr.

 Charlie Brown Jr.
Guitarra e depois Introdução c/banda

Parte 1 ( Tocar 3x )

G|----------------------------4-4-4-----------|
D|----------------------------4-4-4-----------|
A|-2h4--4-4-4-4---------------2-2-2-----------|
E|---------------0--0-0--4-4------------------|

Parte 2

G|--------------------------------------------|
D|--------------------------------------------|
A|-2h4--4-4-4-4-------------------------------|
E|---------------0--0-0--4-4------------------|

G|-4--4-4-4-4-4-4-4---------------------------|
D|-4--4-4-4-4-4-4-4---------------------------|
A|-2--2-2-2-2-2-2-2---------------------------|
E|--------------------------------------------|

Parte 3 ( tocar 2x )

   T T T  P T  T T T  P P T T 
G|--------------------------------------------|
D|--------x-----------2-2---------------------|
A|--------------------------------------------|
E|-4-4-x----5--5-5-0------0-0-----------------|

Primeira parte

Eu procurei em outros corpos encontrar você...

Parte 1 ( tocar 3x )

   T T  T  T  T  P P T T
G|--------------------------------------------|
D|---------------2-2--------------------------|
A|--------------------------------------------|
E|-4-4--5--5--0------0-0----------------------|

Parte 2

   T T  T  T  
G|--------------------------------------------|
D|--------------------------------------------|
A|--------------------------------------------|
E|-4-4--5--5--0-0-0-0-0-0-0-0-----------------|

Parte 3

Fim de semana, eu sei lá, vou viajar...

G|--------------------------------------------|
D|--------------------------------------------|
A|--------------------------------------------|
E|-4-4-4--5-5-5-5-5--0-0-0-0-0-0-0-0----------|

Parte 4
                               .
G|--------------------------------------------|
D|--------------------------------------------|
A|--------------------------------------------|
E|-4-4-4--5-5-5-5-5--0-0-0-0-0-0--------------|

Refrão Primeira parte

Só por uma noite...

Parte 1

   T T    T T  P P T T  T T T  T  T T  T
G|------2-------------------------------------|
D|------2------2-2----------------------------|
A|------0-------------------------------------|
E|-4 4----0-0------0-0--4-4-5--5--0-0--0------|

Refrão Segunda parte

Mas só de ouvir a sua voz...

Parte 1 

G|--------------------------------------------|
D|--------------------------------------------|
A|-2h4--4-4-4-4---------2h4--4-4-4-4----------|
E|--------------0--0-0---------------0--0-0---|

G|------4--4-4-------4--4-4-------------------|
D|------4--4-4-------4--4-4-------------------|
A|------2--2-2-------2--2-2-------------------|
E|-4-4----------4-4---------------------------|

Parte 2

G|--------------------------------------------|
D|--------------------------------------------|
A|-2h4--4-4-4-4---------2h4--4-4-4-4----------|
E|--------------0--0-0---------------0--0-0---|

G|------4--4-4-------4------------------------|
D|------4--4-4-------4------------------------|
A|------2--2-2-------2------------------------|
E|-4-4----------4-4---------------------------|

Parte 3

G|--------------------------------------------|
D|------------2--1-2-4-1-------------2--------|
A|----------2------------2---------2----------|
E|-4-4--5-5---------------4-4--5-5------------|

G|-x-x-x-x--x-x-x-----------------------------|
D|-x-x-x-x--x-x-x-----------------------------|
A|-x-x-x-x--x-x-x-----------------------------|
E|-x-x-x-x--x-x-x-----------------------------|

Introdução 2

Parte 1 ( Tocar 3x )

G|----------------------------4-4-4-----------|
D|----------------------------4-4-4-----------|
A|-2h4--4-4-4-4---------------2-2-2-----------|
E|---------------0--0-0--4-4------------------|

Parte 2

G|--------------------------------------------|
D|--------------------------------------------|
A|-2h4--4-4-4-4-------------------------------|
E|---------------0--0-0--4-4------------------|

G|-4--4-4-4-4-4-4-4---------------------------|
D|-4--4-4-4-4-4-4-4---------------------------|
A|-2--2-2-2-2-2-2-2---------------------------|
E|--------------------------------------------|

Parte 3 ( tocar 2x )

   T T T  P T  T T T  P P T T 
G|--------------------------------------------|
D|--------x-----------2-2---------------------|
A|--------------------------------------------|
E|-4-4-x----5--5-5-0------0-0-----------------|

Segunda parte

Eu procurei abrir os olhos e enxergar você...

Parte 1 ( tocar 3x )

   T T  T  T  T  P P T T
G|--------------------------------------------|
D|---------------2-2--------------------------|
A|--------------------------------------------|
E|-4-4--5--5--0------0-0----------------------|

Parte 2

   T T  T  T  
G|--------------------------------------------|
D|--------------------------------------------|
A|--------------------------------------------|
E|-4-4--5--5--0-0-0-0-0-0-0-0-----------------|

Parte 3

Fim de semana, eu sei lá, vou viajar...

G|--------------------------------------------|
D|--------------------------------------------|
A|--------------------------------------------|
E|-4-4-4--5-5-5-5-5--0-0-0-0-0-0-0-0----------|

Parte 4
                     T T T T T T 
G|--------------------------------------------|
D|-------------------2-2-2-2-2-2--------------|
A|--------------------------------------------|
E|-4-4-4--5-5-5-5-5---------------------------|

Segundo refrão Primeira parte

Só por uma noite...

Parte 1

   T T T  T T T  P P  T T  T T T T T  T T T T
G|--------------------------------------------|
D|---------------2-2--------------------------|
A|--------------------------------------------|
E|-4 4-5--5-0-0------0-0--4-4-5--0-0--0-0-0-0-|

Segundo refrão Segunda parte

Mas só de ouvir a sua voz...

Parte 1 (tocar 2x )

G|--------------------------------------------|
D|--------------------------------------------|
A|-2h4--4-4-4-4---------2h4--4-4-4-4----------|
E|--------------0--0-0---------------0--0-0---|

G|------4--4-4-------4--4-4-------------------|
D|------4--4-4-------4--4-4-------------------|
A|------2--2-2-------2--2-2-------------------|
E|-4-4----------4-4---------------------------|

Parte Final

Se diverte com o que tem...

Parte 1 

   T T  T  T  T  P P T T T T T T   T T  T
G|--------------------------------------------|
D|---------------2-2--------------------------|
A|--------------------------------------------|
E|-4-4--5--5--0------0-0-4-4-5--5--0-0--------|

Parte 2 

G|----------------------------4-4-4-----------|
D|----------------------------4-4-4-----------|
A|-2h4--4-4-4-4---------------2-2-2-----------|
E|---------------0--0-0--4-4------------------|

G|--------------------------------------------|
D|--------------------------------------------|
A|-2h4--4-4-4-4-------------------------------|
E|---------------0--0-0--4-4------------------|

G|-4------------------------------------------|
D|-4------------------------------------------|
A|-2------------------------------------------|
E|--------------------------------------------|

Comentários 0

Composição: Champignons / John Fortis / T. Weymouth
Esse não é o compositor? Avise-nos.
Contribuição: Reginaldo Correções: Reginaldo e mais 1 »
publicidade
fechar