Charlie Brown Jr.

Tâmo aí na Atividade

272.789 exibições
Tom: B
Eles querem que você se sinta mal
Pois assim eles se sentem bem

Intro (Solo)

E|------------------------------|
B|------------------------------|
G|----------6-------------------|
D|------6-8----8-6-----8~-------|
A|--6h8-------------------------|
E|------------------------------|



    (A#m)
E|--6~~----------------------------------|
B|--6~~-----(pode ser feito com dalay)---|
G|---------------------------------------|
D|---------------------------------------|
A|---------------------------------------|
E|---------------------------------------|



E|------------------------------|
B|------------------------------|
G|------------6-----------------|
D|-------6-8-----8-6------------|
A|--6h8-----------------6~-4----|
E|----------------------------6-|



    (A#m)
E|--6~~-------------------------|
B|--6~~-------------------------|
G|------------------------------|
D|------------------------------|
A|------------------------------|
E|------------------------------|

    

E|---------------------------------|
B|----2h4--------------------------|
G|---------3~----------------------|
D|---------------------------------|
A|---------------------------------|
E|---------------------------------|


riff1

    (A#m)    (D#m)
E|--6--6----6---6----------------|
B|--6--6----7---7----------------|
G|--6--6----8---8----------------|
D|--8--8----8---8----------------|
A|-------------------------------|
E|-------------------------------|

Eu nasci pobre mas não nasci otário
Eu é que não caio no conto do vigário
Eu tenho fé em Deus pra resolver qualquer parada
Chega com respeito na minha quebrada



    (A#m)
E|--6~~-------------------------|
B|--6~~-------------------------|
G|------------------------------|
D|------------------------------|            
A|------------------------------|          
E|------------------------------|             
                                         |-- 2X     
E|------------------------------|       /  
B|------------------------------|      /      
G|------------------------------|     /        
D|------------------------------|
A|--1-1-1-4-4-1---4/6-4-1---1~--|
E|--------------4---------4-----|

Eu não vim pra me explicar
Eu vim pra confundir
não vim pra me explicar



riff1

    (A#m)    (D#m)
E|--6--6----6---6----------------|
B|--6--6----7---7----------------|
G|--6--6----8---8----------------|
D|--8--8----8---8----------------|
A|-------------------------------|
E|-------------------------------|

Vem cá seu cu-de-burro vou te dar um esculacho
Sua atitude é de playboy porque sua vida é muito fácil
Vencer na vida, no mundão é só pa quem tem coragem
Um dia eu levo ela pra ver o por do sol da laje


riff1

    (A#m)    (D#m)
E|--6--6----6---6----------------|
B|--6--6----7---7----------------|
G|--6--6----8---8----------------|
D|--8--8----8---8----------------|
A|-------------------------------|
E|-------------------------------|


Solinho junto com riff1        

E|--------------------------16---------------------------|
B|---16b-16----14-16-----14-----16b-16---14-16-----14-16-|
G|----------15-------15~---------------15------15~-------|   2x
D|-------------------------------------------------------|
A|-------------------------------------------------------|
E|-------------------------------------------------------|

Tamo aí na atividade
Tamo aí na atividade
Tamo aí na atividade


riff2

    (A#m)*        (F5)
E|---6-6-6-6-------------------------|
B|---9-9-9-9-------------------------|
G|---6-6-6-6-------------------------|    4x
D|---8-8-8-8-----6/8-6----6----------|            
A|---8-8-8-8-----------8-6--8--------|         
E|----------------------------9------|         

                                           
                                         
Me basta o que venha do surf
Me basta o que venha do skate
Me basta o que venha do coração
Me basta o que venha da mente

Eles são gente mas não são gente como a gente
Eles são gente mas não são gente como a gente


riff1

    (A#m)    (D#m)
E|--6--6----6---6----------------|
B|--6--6----7---7----------------|
G|--6--6----8---8----------------|
D|--8--8----8---8----------------|
A|-------------------------------|
E|-------------------------------|

Meu estilo de vida
Liberta minha mente
Completamente louco
Mas um louco consciente


riff1

    (A#m)    (D#m)
E|--6--6----6---6----------------|
B|--6--6----7---7----------------|
G|--6--6----8---8----------------|
D|--8--8----8---8----------------|
A|-------------------------------|
E|-------------------------------|


Solinho junto com RIFF1 2x        

Tamo aí na atividade
Tamo aí na atividade
Tamo aí na atividade


Agora sei...
O quanto é precioso o nosso tempo
A gente tem que dar valor
Certas coisas não tem preço
O fato é que a gente tem que se preservar

riff3

E|-----4--4--3--3/13-----------------|
B|----2--2--2--2---------------------|
G|---3--3--3--3----------------------|
D|-----------------------------------|
A|-----------------------------------|
E|-----------------------------------|

Viver intensamente com a cabeça no lugar

riff1

    (A#m)    (D#m)
E|--6--6----6---6----------------|
B|--6--6----7---7----------------|
G|--6--6----8---8----------------|
D|--8--8----8---8----------------|
A|-------------------------------|
E|-------------------------------|

Não, eu não me sinto mal
Eu sobrevivo a todo lixo, todo ódio, com amor
Eu sou o valor das coisas simples
Eu dou valor pras coisas simples
Não, eu não me sinto mal
Eu quero é mais que eles queimem na fogueira das vaidades
Eu dou valor pras coisas simples
Eu sou valor das coisas simples
Eu...

riff4

    (A#5)
E|-------------------------------|
B|--(4x)-----------(3x)----------|
G|-------------------------------|
D|---8-8-----------8-8-----------|
A|---8-8-----------8-8-----------|
E|---6-6---1-2-4---6-6-----------|

Mas me diz então...
O que da vida posso ter?
Como tudo deve ser?
Com as balizas do nosso sistema
Mas me diz então...
O que da vida posso ter
Eu tenho fé em Deus
Pra resolver qualquer problema

riff1

    (A#m)    (D#m)
E|--6--6----6---6----------------|
B|--6--6----7---7----------------|
G|--6--6----8---8----------------|
D|--8--8----8---8----------------|
A|-------------------------------|
E|-------------------------------|

Eu nasci pobre mas não nasci otário
Eu é que não caio no conto do vigário
Eu tenho fé em Deus pra resolver qualquer parada
Chega com respeito na minha quebrada



riff1

    (A#m)    (D#m)
E|--6--6----6---6----------------|
B|--6--6----7---7----------------|
G|--6--6----8---8----------------|
D|--8--8----8---8----------------|
A|-------------------------------|
E|-------------------------------|


Solinho junto com riff1     2x   


Tamo aí na atividade
Tamo aí na atividade
Tamo aí na atividade


riff2
    (A#m)*        (F5)     6x


Me basta o que venha do surf
Me basta o que venha do skate
Me basta o que venha do coração
Me basta o que venha da mente
Eles são gente mas não gente como a gente
Eles são gente mas não gente como a gente


    (C#m)        (F5)
E|---9--------------------------|
B|---9--------------------------|
G|---9------------10------------|
D|---11-----------10------------|            
A|---11-----------8-------------|         
E|---9--------------------------|         
                                          |-- 2X  

                                    /     

O meu estilo de vida liberta minha mente


ultimo riff.. ouça a musica que vai ser facil de pegar!

E|--------------------------------|
B|------------------------11------|
G|---------------------13---------|   
D|----10h11p10--------------------|
A|----------------13~~------------|
E|--------------------------------|

Eu sou completamente louco
Mas um louco consciente!!!
    Composição: Guilermo PeladoColaboração e revisão:
    • Marvin

    Comentários 5

    • josue josue: Postado em 13/03/2014 08:44

      eu nasci pobre mais não nasci otário

    • Victor Victor: Postado em 19/12/2013 11:07

      me identifiquei muito com a miusica

    • Attanágoras Attanágoras: Postado em 25/08/2013 17:19

      Show!

    • rafael_zete rafael_zete: Postado em 14/03/2013 13:45

      Video aula aqui plx

    • iagomachado17 iagomachado17: Postado em 23/05/2011 19:04

      video aula ae muito boa *-*

    conseguiu tocar?

    • #JUNO
    • Lucas
    • josue
    • caio2276
    • gaabyevely
    • fercarvalho
    • tcvei
    • •••
    felipe4.340 visualizações
      ver covers de outras músicas »
      0:00 / 0:00

      Capítulos

        2 versões de violãodificuldadeexibiçõescontribuição e correção
        2 versões de guitarradificuldadeexibiçõescontribuição e correção
        2 versões de cavacodificuldadeexibiçõescontribuição e correção
        2 versões de tecladodificuldadeexibiçõescontribuição e correção
        1 versão de baixoexibiçõescontribuição e correção
        2 versões de Guitar Proformatodownloadscontribuição
        play/pausefechar subir/descer velocidade
        6ª corda E5ª corda A4ª corda D3ª corda G2ª corda B1ª corda E
          acordes
          publicidad
          fechar
          ok