RIFF 1:	
G --------------------------------
D -------------4/6--6---6---------
A --4--4----4---------------------
E -----------------------1--1--2--                                                           

   RIFF 2:
G -------------------------8/10--10--8----------------
D -------------4/6--6---6-----------------------------
A --4--4----4--------------------------9---9-9-9-9-9--
E ----------------------------------------------------
              
G -------------------------8/10--10--8--11--11-11--11-10-8--
D -------------4/6--6---6-----------------------------------
A --4--4----4-----------------------------------------------
E ----------------------------------------------------------

   RIFF 3:
G -------------------------------------------------------------------------------
D -------------------------------------------------------------------------------
A --2--2--2--2--2--2--2--2\7---7--7--7--7--7--7--7/2---2--2--2--2--2--2--2\7---7-
E -------------------------------------------------------------------------------
                                                                                
G ------------------
D ------------------
A --7--7--7--7--7--7
E ------------------
                   
Te Levar

   RIFF 1:
Tive pensando em me mudar
Sem te deixar pra trás
Resolvi pensar em nós
Vou te levar daqui

   RIFF 2:
Vou te levar
Te levar daqui

   RIFF 1:
Aquele tempo ficou pra trás
Eu nunca fui feliz ali
Resolvi pensar em nós 
Vou te levar daqui

   RIFF 2:
Vou te levar
Te levar daqui

   RIFF 1:
Eu tenho história
De anos de gloria
Mas só deixe eu te contar
O que eu passei por lá
Mas inda fico impressionado 
Com as coisas da cidade
Aqueles manos se foram, chegaram
Anos se foram, pra onde foram?
Ninguem sabe, ninguem vai
Anos e anos na correria,
Vai leva e traz
Anos e anos na correria,
Vai leva e traz

   RIFF 3:
Resolvi pensar em nós
Vou te levar daqui

   RIFF 2:
Vou te levar
Te levar daqui
____________________________________________

Comentários 3

  • Guilherme Guilherme: Postado em 15/08/2013 23:00

    Ta errado eu corrigir essa tab com a tab certa

  • robinhobaixista robinhobaixista: Postado em 28/01/2013 11:44

    ta errado não.. eu consegui tocar.. mt bom..

  • assacinod assacinod: Postado em 22/08/2012 23:31

    complatamente errado essa tablatura

Composição: Chorão
Esse não é o compositor? Avise-nos.
Contribuição: André Toniate
publicidade
fechar