Too Fast To Live, Too Young To Die

Charlie Brown Jr.

 Charlie Brown Jr.
Tom: D#
		
__________________________________________3x________________________________________________

/                                                     D#                G   G#             \
e|--------------------|----------------------|--------------------|-----------------------|
B|-8-------11------8--|----------------------|--------------------|-----------------------|
G|-8-8888--8--8888-8--|--7-------10------7---|-8-----8-8----------|-----------------------|
D|--------------------|--8-8888--8--8888-8---|-8-----8-8----------|---5-5-56-6-x----------|
A|--------------------|----------------------|-6666--6-6----------|---5-5-56-6-x----------|
E|--------------------|----------------------|--------------------|---3-3-34-4-x----------|




                                                      D#              C       Bb
e|--------------------|----------------------|--------------------|-----------------------|
B|-8-------11------8--|----------------------|--------------------|-----------------------|
G|-8-8888--8--8888-8--|--7-------10------7---|-8-----8-8----------|-----------------------|
D|--------------------|--8-8888--8--8888-8---|-8-----8-8----------|-10-10-10-8-8-8--x-x---|
A|--------------------|----------------------|-6666--6-6----------|-10-10-10-8-8-8--x-x---|
E|--------------------|----------------------|--------------------|-8--8--8--6-6-6--x-x---|





   D#      G    G#         D#        C     Bb       D#      G   G#        D#        C      Bb
e|----------------------|------------------------|---------------------|------------------------|
B|----------------------|------------------------|---------------------|------------------------|
G|-8-8-x----------------|-8-8-x------------------|-8-8-x---------------|-8-8-x------------------|
D|-8-8-x-5-5-56-6-------|-8-8-x--10-10-10-8-8-x--|-8-8-x--5-5-56-6-----|-8-8-x--10-10-10-8-8-x--|
A|-6-6-x-5-5-56-6-------|-6-6-x--10-10-10-8-8-x--|-6-6-x--5-5-56-6-----|-6-6-x--10-10-10-8-8-x--|
E|-------3-3-34-4-------|--------8--8--8--6-6-x--|--------3-3-34-4-----|--------8--8--8--6-6-x--|




     D#
e|-----------------|
B|-----------------|
G|-8-8~~~~---------|
D|-8-8~~~~---------|
A|-6-6~~~~---------|
E|-----------------|


~~ - Vibrato
x - Palm mute




Tá ai!! ouçam a musica para pegar o ritmo!

Comentários 0

Exibir acordes »
publicidade
fechar