Tudo Pro Alto

Charlie Brown Jr.

 Charlie Brown Jr.
riff1
G------------------------------------
D------------------------------------
A-44444444-66666666------------------
E-------------------6666666666666666-

riff2
G-----------------------------------------------------------------------
D-----------------------------------------------------------------------
A----------66666666------------------99999999-66666666------------------
E-22222222----------66666-44-6666666-------------------66666-44-6666666-

riff3
  C#           D#           A#    G# A#
G-----------------------------------------
D----3-----3------5-----5-----------------
A-44---4-4---4-66---6-6---6---------------
E---------------------------66666-4~-6...-

(riff1) 4x
Jogar tudo pro alto lhe convém ?
Estar acima da razão 
Só porque somos jovens, só porque somos jovens 
Desesperado com o mundo estou também 
Escondem tudo com um sorriso na TV e não contam a ninguém 

(riff2) 2x
Estou confuso joguei tudo pra trás 
Mas no fundo eu sei que eu não tentei de tudo 
Mas que bom poder ter uma chance a mais
Estou confuso joguei tudo pra trás 
Mas no fundo eu sei que não tentei de tudo 
Que bom poder ter uma chance a mais 

(riff1) 4x
Tratado de forma que não deu pra entender tanta frieza
Disposição de sobra, vou vencer assim mesmo 
Eu já nem lembro de você 

(riff2)
Então é o vício o que te faz correr atrás 
De mais que o início 
Bem que eu te avisei aquela vez que eu te encontrei 

(riff3)
Taratátatatá...

(riff1) 4x
A vida corre pelas ruas numa busca sem sentido 
Enquanto o mundo vive em guerra por paz 
Não me pergunte o que eu quero da vida que eu quero da vida 
Eu tenho sede de mais 
A vida flui na sua loucura e o momento é decisivo 
Mas agora estou confuso de mais não me pergunte o que eu quero da vida 
Não me pergunte o que eu quero da vida , eu tenho sede de mais 

(riff2) 2x
 Deixe eu só te dizer o quanto eu quero bem você...

(riff3)
Taratátatatá...

termina em: E--6--

_______________________________________________________

Comentários 0

Composição: Guilermo Pelado
Esse não é o compositor? Avise-nos.
Contribuição: Jowtelles
publicidade
fechar