Tudo Que Ela Gosta de Escutar

Charlie Brown Jr.

 Charlie Brown Jr.
 intro   Part !!!! Essa é uma história...
G:-----|----------------------------------|
D:-----|----------------------------------|
A:-----|----6-6-----8-8-----6-6-----66-88-|     6X  
E:2/8--|-88-----8-8-----8-8-----8-8-------| 
Refrão     Eu falo tudo que ela...
G:----------------------------------------------------------------|
D:----------------------------------------------------------------|
A:---------6-6-6-6---------8-8-8-8--------6-6-6-6-----------------|     2X
E:-8-8-8-8---------8-8-8-8---------8-8-8----------8-8-8-8-6-6-6-6-|
   
Part !!!!  O pai dela riu de mim... 
G:----------------------------------|
D:----------------------------------|
A:----6-6-----8-8-----6-6-----66-88-|     6X  
E:-88-----8-8-----8-8-----8-8-------|  
Refrão     Eu falo tudo que ela...
G:----------------------------------------------------------------|
D:----------------------------------------------------------------|
A:---------6-6-6-6---------8-8-8-8--------6-6-6-6-----------------|     2X
E:-8-8-8-8---------8-8-8-8---------8-8-8----------8-8-8-8-6-6-6-6-| 
    
PART @ 6X
G:-----------|
D:-----------|
A:---------6-|
E:-8-8-4-4---|
   
G:------------------------------------------------------------------|
D:------------------------------------------------------------------|
A:---------6-6-6-6--------------------------6-6-6-6---------8-8-8-8-|
E:-8-8-8-8---------6-6-6-6-4-4-4-4--8-8-8-8---------6-6-6-6---------|
Refrão      Tudo que ela...
G:----------------------------------------------------------------|
D:----------------------------------------------------------------|
A:---------6-6-6-6---------8-8-8-8--------6-6-6-6-----------------|     2X
E:-8-8-8-8---------8-8-8-8---------8-8-8----------8-8-8-8-6-6-6-6-| 
   PART @ 3X 
G:-----------|--|-----------|
D:-----------|--|-----------|
A:---------6-|--|-----------|
E:-8-8-4-4---|--|-8-8-4-44--|         


_______________________________________________________
Contribuição: Jair da Silva Farias(rockeiro.gato@bol.com.br)

Comentários 1

  • Lucas Lucas: Postado em 21/05/2014 18:29

    facin demais u.u

Composição: Charlie Brown Jr. / Guilermo Pelado
Esse não é o compositor? Avise-nos.
publicidade
fechar