Um Dia a Gente Se Encontra

Charlie Brown Jr.

 Charlie Brown Jr.
Tom: D#
		
Intro: Eb5  Bb5 G#5 C5-Bb5

Solo:

    E           Bb             G# Cm-Bb
E|--------------------------------------|
B|--------------------------------------|
G|-----------8-----------10-8/13-12-10--|
D|-----------8-----------8--8/13-13-13--|
A|-6-6-6-6-6-6-1-1-1-1-1-8--6-----------|
E|--------------------------------------|



    E             Bb              G#               Cm - Bb
E|------------------------------------------------/11-10-8----|
B|-------------------------------11-11---------------------11-|
G|-8-8-8-------------------------------8-7-8/10/8-------------|
D|-------8-8-8-8-6-6-6-6-5-5-5-5------------------------------|
A|------------------------------------------------------------|
E|------------------------------------------------------------|


Canto 3

E|---------------------------------------|
B|---------------------------------9/8/9-|->Liks
G|---------------------------------8-----|->
D|---------------------------------------|
A|-6-6-6-6-1-1-1-1---------3-------------|Abafado
E|-----------------4-4-4-4---------------|

                           P

E|---------------------------------------|
B|---------------------------------------|
G|---------------------------------------|
D|---------------------------------------|
A|-6-6-6-6-1-1-1-1---------3-------------|Abafado
E|-----------------4-4-4-4---------------|

                           P

E|---------------------------------------|
B|----------------------------8-9-11~~~~-|-->Liks
G|---------------------------------------|
D|---------------------------------------|
A|-6-6-6-6-1-1-1-1---------3-------------|Abafado
E|-----------------4-4-4-4---------------|

                           P

E|----------------------------------|-
B|-------------------8-9-8----------|-->Liks
G|-------------------------8~~~~----|-
D|-------------------------5///-----|
A|-6-6-6-6-1-1-1-1---------3///-----|Abafado
E|-----------------4-4-4-4----------|

                           P

Eb5                 Bb5                 G#
Um dia na praia a gente jurou ficar junto pra sempre
        C5 - Bb5       Eb5                      Bb5
Depois tudo mudou eram portas abertas que depois se fecharam
    G#               C5  -  Bb5       Eb              Bb
O tempo passou e as coisas mudaram  separaram a gente
    G#               Cm  - Bb
As circunstâncias e as coisas
Eb     Bb    G#    Cm  - Bb
(Circunstâncias e as coisas)

Refrão
            C5
Então vamos viver
   Bb5             G#5         Eb5
Um dia a gente se encontra (4x)

Intro

Eb5                 Bb5                 G#         C5 - Bb5
Ruas desertas, conflitos internos, vivendo um sonho que não é só meu
Eb5                 Bb5                 G#         C5 - Bb5
Saudade de casa, que grande ironia, meu tempo agora não é mais só meu
Eb              Bb    G#               Cm  - Bb
E você não entende, a ação do tempo e as coisas
Eb     Bb    G#    Cm  - Bb (Pausa)
(Circunstâncias e as coisas)

Refrão

Canto 3
A liberdade é essencial pra mim, felicidade é essencial pra mim

Se quem eu amo tem amor por mim, eu sei que ainda estamos longe do fim

(Pausa)

Refrão (Várias Vezes)
Texto Colunas
Alterar tom ½ tom ½ tom
afinação acordes na letra esconder tabs mais »
34.282 exibições

Comentários (25)

  • ricardo.jf.50 ricardo.jf.50: Postado em 11/04/2014 12:07

    vídeo aula !!!

  • f.t.h f.t.h: Postado em 01/04/2014 16:22

    video aula cifra club

  • Eduardo Eduardo: Postado em 28/01/2014 20:53

    ta faltando uma partem "ruas desertas conflitos internos"

  • Renato Renato: Postado em 13/01/2014 21:57

    foda demais pow

  • BostaoDaPrivadaNinja BostaoDaPrivadaNinja: Postado em 13/01/2014 01:07

    so q dai tem uma diferença no fim
    B 9-8-6 tipo nao e essa quantidade de batida mas to com preguiça de fazer certim aqui (eu acho)

  • BostaoDaPrivadaNinja BostaoDaPrivadaNinja: Postado em 13/01/2014 01:04

    e na ultima duas vezes do entao vamos viver um dia a gente se encontra tem
    B 4-4-4 3-3-3 6-6-6 4-4-4 ta ligado tipo assim dai vai indo

  • BostaoDaPrivadaNinja BostaoDaPrivadaNinja: Postado em 13/01/2014 01:02

    nao vai muito na minha conversa nao q nao sou nenhum As da guitarra

  • BostaoDaPrivadaNinja BostaoDaPrivadaNinja: Postado em 13/01/2014 00:59

    logo em seguida e tipo isso ta errado mas da uma ideia
    B---------9/11----
    G 8--8-----------13---
    D--8---8----------------8
    TIPO isso ach

    • Renato Renato: Postado em 13/01/2014 03:39

      quase isso
      B 8-6----6----8---------8/11--9--8
      G -----8------------
      D----------------------------
      e deve ser isso aqui

Exibindo 10 de 25 comentários Mostrar mais ver todos »
Composição: Charlie Browm Jr.
Esse não é o compositor? Avise-nos.
Contribuição: klak Correções: ale , klak e mais 6 »
  1. Tudo Que Você Quiser - Luan Santana Manteve-se 6.004 exibições
  2. Lepo Lepo - Psirico Manteve-se 4.431 exibições
  3. Mozão - Lucas Lucco Manteve-se 4.139 exibições
  4. Logo Eu - Jorge e Mateus Manteve-se 3.880 exibições
  5. Gaveta - Fernando e Sorocaba Manteve-se 3.331 exibições
  6. Pra Você - Onze:20 Manteve-se 3.309 exibições
  7. Só Os Loucos Sabem - Charlie Brown Jr. Manteve-se 3.010 exibições
  8. Tempo Perdido - Legião Urbana Manteve-se 2.530 exibições
  9. Fui Fiel - Gusttavo Lima Manteve-se 2.507 exibições
  10. Na Linha do Tempo - Victor e Leo Manteve-se 2.140 exibições
  1. Jorge e Mateus- Manteve-se 23.268 exibições
  2. Legião Urbana- Manteve-se 20.589 exibições
  3. Luan Santana- Manteve-se 17.386 exibições
  4. Charlie Brown Jr.- Manteve-se 17.172 exibições
  5. Fernandinho- Manteve-se 14.617 exibições
  6. Thalles Roberto- Manteve-se 11.189 exibições
  7. Católicas- Manteve-se 11.033 exibições
  8. Gusttavo Lima- Manteve-se 10.465 exibições
  9. Victor e Leo- Manteve-se 10.434 exibições
  10. Aline Barros- Manteve-se 10.076 exibições
Exibir acordes »

Cifras e tabs

Fórum Cifra Club

Aprenda

Cifra Club News

Mais Serviços Cifra Club ID

Studio Sol

©1996 - 2014 Cifra Club · o primeiro, maior e mais acessado do Brasil · 329 mil músicas · 5.9 milhões pessoas cadastradas

publicidade
fechar