Uma Só Vida Pra Viver, Tenho Sede Nela Eu Vou

Charlie Brown Jr.

 Charlie Brown Jr.
Tom: E
		
Intro 2x ):

E|------------------------|---------------------------|
B|------------------------|---------------------------|
G|------------------------|---------------------------|
D|------------------------|---------------------------|
A|------------------------|-------------------------x\|
E|-0~-0~~--3~-5~-2~-2~~---|-0~-2~-3~-5~-3~-5~-2~~-(2)-|


Riff 1:

E|-----------------------------------|----------------|
B|-----------------------------------|----------------|
G|-----------------------------------|----------------|
D|-----------------------------------|-(5)(5)(4)(4)---|
A|---------3p0-2p0---------3p0-(2p)0~|--5--5--4--4----|
E|-0-3-2-0---------0-3-2-0-----------|--3--3--2--2----|


Riff 2:

E|---------|----------|----------|-------|
B|---------|----------|----------|-------|
G|---------|----------|----------|-------|
D|--55~-4~-|-55~-5b6~-|-55~-5b8~-|-5~-5~-|
A|---------|----------|----------|-------|
E|---------|----------|----------|-------|


Riff 1 (2x)
Uma só vida pra viver, tenho sede nela eu vou
uma só vida pra viver...

(E5)
Ela passa na caranga ouvindo o som da minha banda
                     (Riff 2 parte 1)
Com olhar de veneno, não é mais criança
(E5)
Ela é muito gostosa e usa roupa colada
                     (Riff 2 parte 2)
Completamente pronta ela é a melhor da parada

(E5)
O doce dela é bala e ela vai na rave
                     (Riff 2 parte 3)
Eu vou colar com ela, ela me deixa crazy
(E5)
Style pimp eu sou , ela é gata, eu vou
                     (Riff 2 parte 4)
Mulher bonita e vagabundo sempre combinou

C5                      B5           E5              (Riff 2 parte 1)
  Eu só quero um fim de tarde e um lugar só meu e ela pra curtir
C5                      B5           E5              (Riff 2 parte 2)
  Eu só quero um fim de tarde e um lugar só meu e ela pra curtir
C5                      B5           E5              (Riff 2 parte 1)
  Eu só quero um fim de tarde e lugar só meu e ela pra curtir
C5                      B5
  Eu só quero um fim de tarde

(Riff 1  4x)
É com você que eu vou,
Quero curtir com você um pouco mais,
Com você que eu vou,
A gente junto se diverte muito mais,
Com você que eu vou,
O nosso instinto fala por nós,
Com você que eu vou,
A gente junto se diverte muito mais,

Refrão:

E|----------------------------|-----------------------|
B|----------------------------|-----------------------|
G|----------------------------|-----------------------|
D|----------------------------|-5-5-5-5-5-x-4-4-4-4-4-|
A|-2-5-3-2-0-3-2-0------------|-5-5-5-5-5-x-4-4-4-4-4-|
E|-----------------2-5-3-2-0~-|-3-3-3-3-3-x-2-2-2-2-2-|


(Refrão 4x)
Uma só vida pra viver, tenho sede nela eu vou
Você está aqui e eu também estou
Uma só vida pra viver, tenho sede nela eu vou
Você está aqui e eu também estou

(E5)
Mas ela vem no style, pra alegrar o meu baile
                              (Riff 2 parte 1)
Não conhece, não fale, tira o zói, estar com quem sabe lhe dar
(E5)
Mulher sabe o que quer, tá ligado rapaz
                        (Riff 2 parte 2)
Então tem que chegar chegando, tratar bem, ligar,
(E5)
Ser pontual, atencioso e bom ouvinte,
                 (Riff 2 parte 3)
Presentinho, lingerie, champanhe e brinde,
(E5)
Style pimp eu sou, ela é gata, eu vou
                         (Riff 2 parte 4)
Mulher bonita e vagabundo sempre combinou

C5                      B5           E5              (Riff 2 parte 1)
  Eu só quero um fim de tarde e um lugar só meu e ela pra curtir
C5                      B5           E5              (Riff 2 parte 2)
  Eu só quero um fim de tarde e um lugar só meu e ela pra curtir
C5                      B5           E5              (Riff 2 parte 1)
  Eu só quero um fim de tarde e lugar só meu e ela pra curtir
C5                      B5
  Eu só quero um fim de tarde

(Riff 1  4x)
E é com você que eu vou,
Quero curtir com você um pouco mais,
Com você que eu vou,
A gente junto se diverte muito mais,
Com você que eu vou,
O nosso instinto fala por nós,
Com você que eu vou,
A gente junto se diverte muito mais,

(Refrão 4x)
Uma só vida pra viver, tenho sede nela eu vou
Você está aqui e eu também estou
Uma só vida pra viver, tenho sede nela eu vou
Você está aqui e eu também estou

(Intro)

Brisa
O sol se vai lentamente
Aprenda com a vida
E com toda essa gente

(Riff 1 4x)
É com você que eu vou, uouoou
É com você que eu vou,
Quero curtir com você um pouco mais,
Com você que eu vou,
O nosso instinto fala por nós,
Com você que eu vou,
A gente junto se diverte muito mais,

Outro:

E|----------|----------------|----------|------------------------|
B|----------|----------------|----------|------------------------|
G|---5---4~-|----------------|---4~--5~-|------------------------|
D|--5~--4~--|--------2-4~-5~-|--4~--5~--|-2-4-5-4-2--------------|
A|-3~--2~---|-2-3-5~---------|-2~--3~---|-----------5-2~-3-2-3-5-|
E|----------|----------------|----------|------------------------|


Uma só vida pra viver, tenho sede nela eu vou
Você está aqui e eu também estou
Uma só vida pra viver, tenho sede nela eu vou
Você está aqui e eu também estou

Final:
E|----|
B|----|
G|-9~-|
D|-9~-|
A|-7~-|
E|----|
7.252 exibições

Comentários 1

  • João Gabriel João Gabriel: Postado em 22/11/2013 13:00

    Vídeo aula por favor, com o Gustavo Fofão

Composição: Dave Ketchum / Eduardo Frigerio / Finn Bjarson / Michelle Vendome / Silvio Rochael / Tuomas Ilmavirta
Esse não é o compositor? Avise-nos.
Contribuição: tcvei
Exibir acordes »
publicidade
fechar