Vem Ser Minha

Charlie Brown Jr.

 Charlie Brown Jr.
Tom: E
Afinação: Eb Ab Db Gb Bb Eb
		
Intro: C#m  G#m  A  E  B

      ( C#m G#m A E B )
------       ----------------------------------
------       -----19-17-21-19-17---------------
-16---       --18---------------------------16
------       -------------------------16-18----
------       ----------------------------------
------       ----------------------------------


C#m                         G#m
Deus me abençoou e me deu um dom
A                              E      B
Pra essa menina linda vou escrever um som

C#m                         G#m
Meu coração que bate aqui é dela,
     A                  E        B
Ela continua linda, ela continua bela!
          C#m
Eu perguntei tá tudo bem?
        G#m
Ela sorriu, disse que sim,
      A                          E
Se tá tudo bom pra ela, então tá tudo bom

pra

B
mim!
             ( C#m G#m A E B ) Guitarra + Delay
------       ----------------------------------
------       -----19-17-21-19-17---------------
-16---       --18---------------------------16
------       -------------------------16-18----
------       ----------------------------------
------       ----------------------------------


Verso: Guitarra Limpa + Chorus


--4------4----------------------------------
----5-----------6---------------------------
------------4-----5---------4---------------
------------------------4-6---6-4-----------
--------------------------------------------
--------------------------------------------




--4------4----------------------------------
----5-------------------554-----4-----------
------------4--6-5--------------4-----------
----------------------------4-6-------------
--------------------------------------------
--------------------------------------------


C#m                 G#m
Esqueça tudo e me beije,
 A            E        B
Como há muito tempo eu sonho,
C#m               Gm
Me dê você de presente
 A            E        B
Faça dessa noite um sonho!

C#m                 G#m
Esqueça tudo e me beije,
A            E        B
Como há muito tempo eu sonho,
 C#m               G#m
Me dê você de presente
A            E        B
Faça dessa noite um sonho!

      C#m         G#m
Pois não existe nada melhor,
A            E        B
E se existia, não existe mais
 C#m         G#m
Não existe nada melhor,
A            E        B
E se existia, não existe mais

        C#m                            G#m
Eu vôo sem perder de vista o que pra mim é imprescindível
       A            E        B                C#m
Minha Mega Special Girl, o meu sonho mais incrível, imperdível!
                     G#m                    A            E        B
É mais do que eu possa dizer, ela é a menina mais incrível desse mundo, então...

C#m                              G#m
Já faz um tempo que eu gosto dela,
     A            E        B
Ela continua linda, ela continua bela!
          C#m
Eu perguntei tá tudo bem?
        G#m
Ela sorriu, disse que sim,
      A                          E        B
Se tá tudo bom pra ela, então tá tudo bom pra mim!

Refrão 2x:

C#m          G#m          A            E  B
Vem ser minha, vem ser minha namorada,
C#m          G#m          A        E  B
Vem ser minha, vem ser minha gata!

Base do Solo 2x: C#m  G#m  A  E  B

       C#m                G#m
A vida é uma boca a ser beijada,
       A            E        B
Mas a vida só gosta de quem gosta de viver,
   C#m                       G#m
A vida não quer ser disperdiçada,
      A                       E      B
Aproveite seu tempo está tudo aí pra você, então...

C#m                 G#m
Esqueça tudo e me beije,
A            E        B
Como há muito tempo eu sonho,
 C#m               G#m
Me dê você de presente
A            E        B
Faça dessa noite um sonho!

      C#m         G#m
Pois não existe nada melhor,
A            E        B
E se existia, não existe mais
 C#m         G#m
Não existe nada melhor,
A            E        B
E se existia, não existe mais

         C#m                  G#m
Eu sigo calmo, seguro, tranquilo!
        A            E        B
Ir com ela pra uma noite muito boa!
       C#m                  G#m
Mas antes vou jantar, vou tomar um vinho,
         A            E        B
Fumar um beck no meu carro novinho!

C#m                              G#m
Já faz um tempo que eu gosto dela,
     A            E        B
Ela continua linda, ela continua bela!
          C#m
Eu perguntei tá tudo bem?
        G#m
Ela sorriu, disse que sim,
      A                          E        B
Se tá tudo bom pra ela, então tá tudo bom pra mim!

Refrão 2x:

C#m          G#m          A           E  B
Vem ser minha, vem ser minha namorada,
C#m          G#m          A       E  B
Vem ser minha, vem ser minha gata!

Solo:

             C#m              G#m           A              E               B
||-------------------------------------------------------------9------------------||
||-------------------------------------------------------------9------------------||        (2X)
||----------8h9---------------------------8h9------------11b12----12b11-9---------||
||-----9-11-----11-9-11-9-11-9~~-----9-11-----11-9-11-9-------------------11~~----||
||--11----------------------------11----------------------------------------------||
||--------------------------------------------------------------------------------||




    C#m       G#m    A     E      B    C#m  G#m          A      E   B     C#m
||--------------------------------------------------------------------------------||
||------------------/9~~--9h10p9------------------12-10-9-------------------------||
||-9~~----9-8~~---8--------------11-9-8-------------------9--9/11-8h9p8-----------||
||-----11-------9-----------------------9-9/11~~------------------------9/11~~----||
||--------------------------------------------------------------------------------||
||--------------------------------------------------------------------------------||
43.165 exibições

Comentários 21

  • Felipe Felipe: Postado em 20/12/2014 14:18

    tom certo cifra errada vou corrigir

  • Lucas Lucas: Postado em 24/09/2014 17:06

    esse tom ta errado o tom certo é D#

  • Matheus Matheus: Postado em 08/09/2014 01:53

    video aula se for possivel vlw....

  • maikinholucas maikinholucas: Postado em 31/08/2014 23:27

    vídeo aula por favor u.u

  • Frederico Frederico: Postado em 16/06/2014 21:38

    Qual a batida do refrao ? Obrigado desde ja.

  • Fernando Fernando: Postado em 01/06/2014 03:33

    só falta video aula. pq sou muito lerdo kk

  • Nailton Nailton: Postado em 19/03/2014 20:48

    eu acho que essa cifra ta errada!

    • Banda Dz6! Banda Dz6!: Postado em 22/03/2014 09:40

      arruma ai tiozão...

  • Paulo Paulo: Postado em 19/03/2014 17:41

    muito foda essa musica !!!

  • josue josue: Postado em 13/03/2014 08:35

    show essa musica

Exibindo 10 de 21 comentários Mostrar mais ver todos »
Composição: Chorão
Esse não é o compositor? Avise-nos.
Contribuição: mateus12345 Correções: Natã , magraooo e mais 2 »
Exibir acordes »
publicidade
fechar