Zóio de Lula

Charlie Brown Jr.

 Charlie Brown Jr.
Intro:
G|---------------------------------------------------
D|-----9h11-11-11-11\--------------------------------
A|-11\-----------------------------------------------
E|---------------------------------------------------

G|---------------------------------------------------
D|-----------------------2------------------------2--
A|-4-4-2-4-2---2-2-----2----4-4-2-4-2---2-2-----2----
E|-----------4-----2-4----------------4-----2-4------

G|---------------------------------------------------
D|-----------------------2---------------------------
A|-4-4-2-4-2---2-2-----2----4-4-2-4-2----------------
E|-----------4-----2-4----------------4-7\-----------

Primeira Parte:
G|---------------------------------------------------
D|-----------------------2------------------------2--
A|-4-4-2-4-2---2-2-----2----4-4-2-4-2---2-2-----2----
E|-----------4-----2-4----------------4-----2-4------

G|---------------------------------------------------
D|-----------------------2---------------------------
A|-4-4-2-4-2---2-2-----2----4-4-2-4-2---2/14-x-14\---
E|-----------4-----2-4----------------4--------------

G|---------------------------------------------------
D|-----------------------2------------------------2--
A|-4-4-2-4-2---2-2-----2----4-4-2-4-2---2-2-----2----
E|-----------4-----2-4----------------4-----2-4------

G|---------------------------------------------------
D|-----------------------2------------------------2--
A|-4-4-2-4-2---2-2-----2----4-4-2-4-2---2-2-----2----
E|-----------4-----2-4----------------4-----2-4------

G|---------------------------------------------------
D|-----------------------2------------------------2--
A|-4-4-2-4-2---2-2-----2----4-4-2-4-2---2-2-----2----
E|-----------4-----2-4----------------4-----2-4------

G|---------------------------------------------------
D|-----------------------2---------------------------
A|-4-4-2-4-2---2-2-----2----4-4-2-4-2---2------------
E|-----------4-----2-4----------------4--------------

Tirou a roupa
Entrou no mar
Pensei: Meu Deus!
Que bom que fosse
Tu me apresenta
Essa mulher
Meu irmão te dava
Até um doce
Sem roupa ela é demais
Também por isso
Eu creio em Deus
Meu Bom, Meu Deus
Meu Bom, me trás...
Ainda bem que eu trouxe
Até meu guarda-sol
Tenho toda tarde
Tenho a vida inteira
Já se foi aquele tempo
Da ladeira, irmão!
Já que se foi aquele tempo
Da ladeira, irmão!
Meu escritório é na praia
Eu tô sempre na área
Mas eu não sou
Da tua láia, não!
Meu escritório é na praia
Eu tô sempre na área
Mas eu não sou
Daquela láia, não!


Refrão:
                                     Harm
G|---------------------------------------------------
D|------------------------------------9--------------
A|-4-4-4-6-7-6---------4-4-4-6-7-6----9--------------
E|-------------7-7-4-7-------------7/---4-7----------

                                     Harm
G|---------------------------------------------------
D|------------------------------------9--------------
A|-4-4-4-6-7-6---------4-4-4-6-7-6----9--------------
E|-------------7-7-4-7-------------7/---4-7----------

(...)
Então!
Deixe viver, deixe ficar
Deixe estar como está
Deixe viver, deixe ficar
Deixe estar como está...

Segunda parte:
G|---------------------------------------------------
D|---------------------------------------------------
A|-4-4-4-6-7-6---------4-4-4-6-7-6-------------------
E|-------------7-7-4-7-------------7-7-4-7-----------

G|---------------------------------------------------
D|---------------------------------------------------
A|-4-4-4-6-7-6---------4-4-4-6-7-6-------------------
E|-------------7-7-4-7-------------7-7-4-7-----------

(...)
Meu Deus me dê um motivo
Pois eu pago tanto mico
Ela me ignora
Na esperança eu ainda fico
Eu tô fritando aqui
Vou entregar
Não agüento mais
Mas se eu não falar hoje
Talvez nunca a veja mais...

Terceira parte:
G|---------------------------------------------------
D|---------------------------------------------------
A|-4-4---4---2-2---2-2---4-4---4---2-2---2-2---------
E|-----4---4-----4-----4-----4---4-----4-----4-------

G|---------------------------------------------------
D|---------------------------------------------------
A|-4-4---4---2-2---2-2---4-4---4---2-2---2-2---2-----
E|-----4---4-----4-----4-----4---4-----4-----4-------

(...)
O dia passa
Horas se estendem
As pessoas ao redor
Nunca me entendem...(2x)

Refrão:
                                    Harm
G|---------------------------------------------------
D|------------------------------------9--------------
A|-4-4-4-6-7-6---------4-4-4-6-7-6----9--------------
E|-------------7-7-4-7-------------7/---4-7----------

                                     Harm
G|---------------------------------------------------
D|------------------------------------9--------------
A|-4-4-4-6-7-6---------4-4-4-6-7-6----9--------------
E|-------------7-7-4-7-------------7/---4-7----------

                                    Harm
G|---------------------------------------------------
D|------------------------------------9--------------
A|-4-4-4-6-7-6---------4-4-4-6-7-6----9--------------
E|-------------7-7-4-7-------------7/---4-7----------
                                        
                                     Harm
G|---------------------------------------------------
D|------------------------------------9--------------
A|-4-4-4-6-7-6---------4-4-4-6-7-6----9--------------
E|-------------7-7-4-7-------------7/---4-7----------

(...)
Então!
Deixe viver, deixe ficar
Deixe estar como está
Deixe viver, deixe ficar
Deixe estar como está...(2x)

Solo de guitarra:

G|---------------------------------------------------
D|---------------------------------------------------
A|-4-4---4---2-2---2-2---4-4---4---2-2---2-2---------
E|-----4---4-----4-----4-----4---4-----4-----4-------

G|---------------------------------------------------
D|---------------------------------------------------
A|-4-4---4---2-2---2-2---4-4---4---2-2---2-2---------
E|-----4---4-----4-----4-----4---4-----4-----4-------

G|---------------------------------------------------
D|---------------------------4h6-4---4---------------
A|-4-4---4---2-2---2-2---4-4-------7---7-------------
E|-----4---4-----4-----4-----------------------------

G|---------------------------------------------------
D|---------------------------------------------------
A|-4-4---4---2-2---2-2---4-4---4---2-2---2-2---------
E|-----4---4-----4-----4-----4---4-----4-----4/------


Repetição da terceira parte:

G|---------------------------------------------------
D|---------------------------------------------------
A|-14h16\--------------------------------------------
E|---------------------------------------------------

G|---------------------------------------------------
D|-9h11-11-11-11\------------------------------------
A|---------------------------------------------------
E|---------------------------------------------------

(...)
O dia passa
Horas se estendem
As pessoas ao redor
Nunca me entendem...(2x)

(Repete a Primeira parte)

(Repete o Refrão)

Final:

G|---------------------------------------------------
D|---------------------------------------------------
A|-4-4---4---2-2---2-2---4-4---4---2-2---2-2---------
E|-----4---4-----4-----4-----4---4-----4-----4-------

G|---------------------------------------------------
D|-----4h6-4---4-------------------------------------
A|-4-4-------7---7---4-4---4---2-2-------------------
E|-----------------7-----4---4-----4-----------------

G|---------------------------------------------------
D|---------------------------------------------------
A|-4-4---4---2-2---2-2---4-4---4---2-2---2-2---4-----
E|-----4---4-----4-----4-----4---4-----4-----4-------

(...)
Aheeeeeeeeeeeeeeê!
Aheeeeeeeeeeeeeeê!
Aheeeeeeeeeeeeeeê!

Comentários 9

  • Daniel Daniel: Postado em 31/08/2014 12:56

    Eu toco refrão de outra maneira, fica bem mais legal.

  • Thalles Thalles: Postado em 17/04/2014 22:10

    Champion monstro !!

  • LucasMenezesCBJR LucasMenezesCBJR: Postado em 16/03/2014 14:25

    ta tudo certo só acho q a intro ao envés de toca do jeito q ta ai na cifra toca assim
    A|--------14h16-16-16-16\
    E|-14\----------------

    • Lucas Lucas: Postado em 26/05/2014 22:55

      eu toco assim msm

  • vitor vitor: Postado em 21/01/2014 17:30

    nem precisa de video aula

  • vitorcapslock vitorcapslock: Postado em 20/07/2012 15:21

    gente coloke a musica que a tab tá certa da pra aconpahar nem precisa de video aula

  • dudu096 dudu096: Postado em 06/06/2012 20:14

    video aula

  • wel87 wel87: Postado em 16/05/2012 11:47

    queremos ver video aula no contra baixo zoio de lula valeu

  • momelis momelis: Postado em 27/12/2011 16:32

    botem a video aulaaaaaa

Composição: Champ! / MV Bill
Esse não é o compositor? Avise-nos.
Contribuição: marcos manel joaquin da silva Correções: Filipe e mais 1 »
publicidade
fechar