Chicleteiro Eu, Chicleteira Ela

Chiclete Com Banana

 Chiclete Com Banana
Tom: C
		
(intro) E7  Am

(solo) E7 Am


E|----------------------------------------------|
B|------------13--10-----------12-----9-10------|
G|-7~9--10-9----------9---7~9-----9-------------|
D|----------------------------------------------|
A|----------------------------------------------|
E|----------------------------------------------|


Am     Dm
O meu amor é uma cigana linda
     Am
Que ama a lua, ama o sol e o mar
      E7
É a sereia que anda na rua
            Am
E quando eu canto ela vem me amar
        Dm
É uma menina que mexe comigo
          Am
E que me chama amor vem namorar
        E7                            Am
Que me abraça e me dá abrigo no seu olhar

            E7
Chicleteiro eu, chicleteira ela
            Am
Chicleteiro eu, chicleteira ela
            E7
Chicleteiro eu, chicleteira ela
                           Am
Libera, libera, libera, libera (bis)

        Dm
É uma menina que mexe comigo
          Am
E que me chama amor vem namorar
        E7                            Am
Que me abraça e me dá abrigo no seu olhar

      Dm                      Am
E com ela que eu vou, vou com ela
    E7                                   Am
Vou amar esse amor chicleteiro no meu carnaval

            E7
Chicleteiro eu, chicleteira ela
            Am
Chicleteiro eu, chicleteira ela
            E7
Chicleteiro eu, chicleteira ela
                           Am
Libera, libera, libera, libera (bis)


E|----------------------------------------------|
B|------------13--10-----------12-----9-10------|
G|-7~9--10-9----------9---7~9-----9-------------|
D|----------------------------------------------|
A|----------------------------------------------|
E|----------------------------------------------|
89.112 exibições

Comentários 0

Composição: Paulo Vascon / Tenison Del Rey
Esse não é o compositor? Avise-nos.
Contribuição: Zanferari Correções: ogabrielalves , reyklaus e mais 2 »
Exibir acordes »
publicidade
fechar